  0
SECTION
  2
HEADER
  9
$ACADVER
  1
AC1014
  9
$ACADMAINTVER
 70
     9
  9
$DWGCODEPAGE
  3
ANSI_1250
  9
$INSBASE
 10
0.0
 20
0.0
 30
0.0
  9
$EXTMIN
 10
-945.0
 20
-1030.0
 30
-0.0000000000003973
  9
$EXTMAX
 10
4730.0
 20
2945.0
 30
2800.0
  9
$LIMMIN
 10
0.0
 20
0.0
  9
$LIMMAX
 10
12.0
 20
9.0
  9
$ORTHOMODE
 70
     0
  9
$REGENMODE
 70
     1
  9
$FILLMODE
 70
     1
  9
$QTEXTMODE
 70
     0
  9
$MIRRTEXT
 70
     1
  9
$DRAGMODE
 70
     2
  9
$LTSCALE
 40
1.0
  9
$OSMODE
 70
    37
  9
$ATTMODE
 70
     1
  9
$TEXTSIZE
 40
0.2
  9
$TRACEWID
 40
0.05
  9
$TEXTSTYLE
  7
STANDARD
  9
$CLAYER
  8
BODEN
  9
$CELTYPE
  6
BYLAYER
  9
$CECOLOR
 62
   256
  9
$CELTSCALE
 40
1.0
  9
$DELOBJ
 70
     1
  9
$DISPSILH
 70
     0
  9
$DIMSCALE
 40
1.0
  9
$DIMASZ
 40
0.2
  9
$DIMEXO
 40
0.05
  9
$DIMDLI
 40
0.38
  9
$DIMRND
 40
0.0
  9
$DIMDLE
 40
0.0
  9
$DIMEXE
 40
0.2
  9
$DIMTP
 40
0.0
  9
$DIMTM
 40
0.0
  9
$DIMTXT
 40
0.2
  9
$DIMCEN
 40
0.09
  9
$DIMTSZ
 40
0.0
  9
$DIMTOL
 70
     0
  9
$DIMLIM
 70
     0
  9
$DIMTIH
 70
     0
  9
$DIMTOH
 70
     0
  9
$DIMSE1
 70
     0
  9
$DIMSE2
 70
     0
  9
$DIMTAD
 70
     0
  9
$DIMZIN
 70
     0
  9
$DIMBLK
  1
VDDIM_DEFAULT
  9
$DIMASO
 70
     1
  9
$DIMSHO
 70
     1
  9
$DIMPOST
  1

  9
$DIMAPOST
  1

  9
$DIMALT
 70
     0
  9
$DIMALTD
 70
     2
  9
$DIMALTF
 40
25.4
  9
$DIMLFAC
 40
1.0
  9
$DIMTOFL
 70
     1
  9
$DIMTVP
 40
0.0
  9
$DIMTIX
 70
     1
  9
$DIMSOXD
 70
     0
  9
$DIMSAH
 70
     0
  9
$DIMBLK1
  1

  9
$DIMBLK2
  1

  9
$DIMSTYLE
  2
STANDARD
  9
$DIMCLRD
 70
     0
  9
$DIMCLRE
 70
   256
  9
$DIMCLRT
 70
   256
  9
$DIMTFAC
 40
1.0
  9
$DIMGAP
 40
0.09
  9
$DIMJUST
 70
     0
  9
$DIMSD1
 70
     0
  9
$DIMSD2
 70
     0
  9
$DIMTOLJ
 70
     1
  9
$DIMTZIN
 70
     0
  9
$DIMALTZ
 70
     0
  9
$DIMALTTZ
 70
     0
  9
$DIMFIT
 70
     3
  9
$DIMUPT
 70
     1
  9
$DIMUNIT
 70
     2
  9
$DIMDEC
 70
     4
  9
$DIMTDEC
 70
     4
  9
$DIMALTU
 70
     2
  9
$DIMALTTD
 70
     2
  9
$DIMTXSTY
  7
STANDARD
  9
$DIMAUNIT
 70
     0
  9
$LUNITS
 70
     2
  9
$LUPREC
 70
     4
  9
$SKETCHINC
 40
0.1
  9
$FILLETRAD
 40
0.5
  9
$AUNITS
 70
     0
  9
$AUPREC
 70
     0
  9
$MENU
  1
.
  9
$ELEVATION
 40
0.0
  9
$PELEVATION
 40
0.0
  9
$THICKNESS
 40
0.0
  9
$LIMCHECK
 70
     0
  9
$BLIPMODE
 70
     0
  9
$CHAMFERA
 40
0.5
  9
$CHAMFERB
 40
0.5
  9
$CHAMFERC
 40
1.0
  9
$CHAMFERD
 40
0.0
  9
$SKPOLY
 70
     0
  9
$TDCREATE
 40
2455322.4110164
  9
$TDUPDATE
 40
2455322.452683079
  9
$TDINDWG
 40
0.0000000116
  9
$TDUSRTIMER
 40
0.0000000116
  9
$USRTIMER
 70
     1
  9
$ANGBASE
 50
0.0
  9
$ANGDIR
 70
     0
  9
$PDMODE
 70
     0
  9
$PDSIZE
 40
0.0
  9
$PLINEWID
 40
0.0
  9
$COORDS
 70
     1
  9
$SPLFRAME
 70
     0
  9
$SPLINETYPE
 70
     6
  9
$SPLINESEGS
 70
     8
  9
$ATTDIA
 70
     0
  9
$ATTREQ
 70
     1
  9
$HANDLING
 70
     1
  9
$HANDSEED
  5
4E1
  9
$SURFTAB1
 70
     6
  9
$SURFTAB2
 70
     6
  9
$SURFTYPE
 70
     6
  9
$SURFU
 70
     6
  9
$SURFV
 70
     6
  9
$UCSNAME
  2

  9
$UCSORG
 10
0.0
 20
0.0
 30
0.0
  9
$UCSXDIR
 10
1.0
 20
0.0
 30
0.0
  9
$UCSYDIR
 10
0.0
 20
1.0
 30
0.0
  9
$PUCSNAME
  2

  9
$PUCSORG
 10
0.0
 20
0.0
 30
0.0
  9
$PUCSXDIR
 10
1.0
 20
0.0
 30
0.0
  9
$PUCSYDIR
 10
0.0
 20
1.0
 30
0.0
  9
$USERI1
 70
     0
  9
$USERI2
 70
     0
  9
$USERI3
 70
     0
  9
$USERI4
 70
     0
  9
$USERI5
 70
     0
  9
$USERR1
 40
0.0
  9
$USERR2
 40
0.0
  9
$USERR3
 40
0.0
  9
$USERR4
 40
0.0
  9
$USERR5
 40
0.0
  9
$WORLDVIEW
 70
     1
  9
$SHADEDGE
 70
     3
  9
$SHADEDIF
 70
    70
  9
$TILEMODE
 70
     1
  9
$MAXACTVP
 70
    64
  9
$PINSBASE
 10
0.0
 20
0.0
 30
0.0
  9
$PLIMCHECK
 70
     0
  9
$PEXTMIN
 10
1.000000000000000E+20
 20
1.000000000000000E+20
 30
1.000000000000000E+20
  9
$PEXTMAX
 10
-1.000000000000000E+20
 20
-1.000000000000000E+20
 30
-1.000000000000000E+20
  9
$PLIMMIN
 10
0.0
 20
0.0
  9
$PLIMMAX
 10
12.0
 20
9.0
  9
$UNITMODE
 70
     0
  9
$VISRETAIN
 70
     1
  9
$PLINEGEN
 70
     0
  9
$PSLTSCALE
 70
     1
  9
$TREEDEPTH
 70
  3020
  9
$PICKSTYLE
 70
     1
  9
$CMLSTYLE
  2
STANDARD
  9
$CMLJUST
 70
     0
  9
$CMLSCALE
 40
1.0
  9
$PROXYGRAPHICS
 70
     1
  9
$MEASUREMENT
 70
     0
  0
ENDSEC
  0
SECTION
  2
CLASSES
  0
CLASS
  1
ACDBDICTIONARYWDFLT
  2
AcDbDictionaryWithDefault
  3
ObjectDBX Classes
 90
        0
280
     0
281
     0
  0
CLASS
  1
XRECORD
  2
AcDbXrecord
  3
AutoCAD 2000
 90
        0
280
     0
281
     0
  0
CLASS
  1
LWPOLYLINE
  2
AcDbPolyline
  3
AutoCAD 2000
 90
        0
280
     0
281
     1
  0
CLASS
  1
HATCH
  2
AcDbHatch
  3
AutoCAD 2000
 90
        0
280
     0
281
     1
  0
CLASS
  1
ACDBPLACEHOLDER
  2
AcDbPlaceHolder
  3
ObjectDBX Classes
 90
        0
280
     0
281
     0
  0
CLASS
  1
LAYOUT
  2
AcDbLayout
  3
ObjectDBX Classes
 90
        0
280
     0
281
     0
  0
ENDSEC
  0
SECTION
  2
TABLES
  0
TABLE
  2
VPORT
  5
46
330
0
100
AcDbSymbolTable
 70
     2
  0
VPORT
  5
67
102
{ACAD_XDICTIONARY
360
4DF
102
}
330
46
100
AcDbSymbolTableRecord
100
AcDbViewportTableRecord
  2
*ACTIVE
 70
     0
 10
0.0
 20
0.0
 11
1.0
 21
1.0
 12
1035.911434438177
 22
1429.169982461554
 13
0.0
 23
0.0
 14
1.0
 24
1.0
 15
1.0
 25
1.0
 16
-0.5792279653396163
 26
-0.579227965339509
 36
0.5735764363510594
 17
0.0
 27
0.0
 37
0.0
 40
7575.474190072931
 41
0.00234397957278
 42
50.0
 43
0.0
 44
0.0
 50
0.0
 51
0.0
 71
     0
 72
   100
 73
     1
 74
     3
 75
     0
 76
     0
 77
     0
 78
     0
  0
ENDTAB
  0
TABLE
  2
LTYPE
  5
43
330
0
100
AcDbSymbolTable
 70
    25
  0
LTYPE
  5
52
330
43
100
AcDbSymbolTableRecord
100
AcDbLinetypeTableRecord
  2
BYBLOCK
 70
     0
  3

 72
    65
 73
     0
 40
0.0
  0
LTYPE
  5
53
330
43
100
AcDbSymbolTableRecord
100
AcDbLinetypeTableRecord
  2
BYLAYER
 70
     0
  3

 72
    65
 73
     0
 40
0.0
  0
LTYPE
  5
54
330
43
100
AcDbSymbolTableRecord
100
AcDbLinetypeTableRecord
  2
CONTINUOUS
 70
     0
  3
Solid line
 72
    65
 73
     0
 40
0.0
  0
LTYPE
  5
6F
330
43
100
AcDbSymbolTableRecord
100
AcDbLinetypeTableRecord
  2
CENTER
 70
     0
  3
Center ____ _ ____ _ ____ _ ____ _ ____ _ ____
 72
    65
 73
     4
 40
2.0
 49
1.25
 74
     0
 49
-0.25
 74
     0
 49
0.25
 74
     0
 49
-0.25
 74
     0
  0
LTYPE
  5
70
330
43
100
AcDbSymbolTableRecord
100
AcDbLinetypeTableRecord
  2
DASHDOT
 70
     0
  3
Dashdot __ . __ . __ . __ . __ . __ . __ . __
 72
    65
 73
     4
 40
1.0
 49
0.5
 74
     0
 49
-0.25
 74
     0
 49
0.0
 74
     0
 49
-0.25
 74
     0
  0
LTYPE
  5
71
330
43
100
AcDbSymbolTableRecord
100
AcDbLinetypeTableRecord
  2
DASHED
 70
     0
  3
Dashed __ __ __ __ __ __ __ __ __ __ __ __ __ _
 72
    65
 73
     2
 40
0.75
 49
0.5
 74
     0
 49
-0.25
 74
     0
  0
LTYPE
  5
72
330
43
100
AcDbSymbolTableRecord
100
AcDbLinetypeTableRecord
  2
HIDDEN
 70
     0
  3
Hidden __ __ __ __ __ __ __ __ __ __ __ __ __ __
 72
    65
 73
     2
 40
0.375
 49
0.25
 74
     0
 49
-0.125
 74
     0
  0
LTYPE
  5
73
330
43
100
AcDbSymbolTableRecord
100
AcDbLinetypeTableRecord
  2
HIDDEN2
 70
     0
  3
Hidden2 _ _ _ _ _ _ _ _ _ _ _ _ _ _ _ _ _ 
 72
    65
 73
     2
 40
0.1875
 49
0.125
 74
     0
 49
-0.0625
 74
     0
  0
LTYPE
  5
74
330
43
100
AcDbSymbolTableRecord
100
AcDbLinetypeTableRecord
  2
BORDER
 70
     0
  3
Border __ __ . __ __ . __ __ . __ __ . __ __ .
 72
    65
 73
     6
 40
1.75
 49
0.5
 74
     0
 49
-0.25
 74
     0
 49
0.5
 74
     0
 49
-0.25
 74
     0
 49
0.0
 74
     0
 49
-0.25
 74
     0
  0
LTYPE
  5
75
330
43
100
AcDbSymbolTableRecord
100
AcDbLinetypeTableRecord
  2
BORDER2
 70
     0
  3
Border2 __.__.__.__.__.__.__.__.__.__.__.
 72
    65
 73
     6
 40
0.875
 49
0.25
 74
     0
 49
-0.125
 74
     0
 49
0.25
 74
     0
 49
-0.125
 74
     0
 49
0.0
 74
     0
 49
-0.125
 74
     0
  0
LTYPE
  5
76
330
43
100
AcDbSymbolTableRecord
100
AcDbLinetypeTableRecord
  2
BORDERX2
 70
     0
  3
Borderx2  ____  ____  .  ____  ____  .  ___
 72
    65
 73
     6
 40
3.5
 49
1.0
 74
     0
 49
-0.5
 74
     0
 49
1.0
 74
     0
 49
-0.5
 74
     0
 49
0.0
 74
     0
 49
-0.5
 74
     0
  0
LTYPE
  5
77
330
43
100
AcDbSymbolTableRecord
100
AcDbLinetypeTableRecord
  2
CENTER2
 70
     0
  3
Center2  ___ _ ___ _ ___ _ ___ _ ___ _ ___
 72
    65
 73
     4
 40
1.125
 49
0.75
 74
     0
 49
-0.125
 74
     0
 49
0.125
 74
     0
 49
-0.125
 74
     0
  0
LTYPE
  5
78
330
43
100
AcDbSymbolTableRecord
100
AcDbLinetypeTableRecord
  2
CENTERX2
 70
     0
  3
Centerx2  ________  __  ________  __  _____
 72
    65
 73
     4
 40
4.0
 49
2.5
 74
     0
 49
-0.5
 74
     0
 49
0.5
 74
     0
 49
-0.5
 74
     0
  0
LTYPE
  5
79
330
43
100
AcDbSymbolTableRecord
100
AcDbLinetypeTableRecord
  2
DASHDOT2
 70
     0
  3
Dashdot2  _._._._._._._._._._._._._._._.
 72
    65
 73
     4
 40
0.5
 49
0.25
 74
     0
 49
-0.125
 74
     0
 49
0.0
 74
     0
 49
-0.125
 74
     0
  0
LTYPE
  5
7A
330
43
100
AcDbSymbolTableRecord
100
AcDbLinetypeTableRecord
  2
DASHDOTX2
 70
     0
  3
Dashdotx2 ____  .  ____  .  ____  .  ___
 72
    65
 73
     4
 40
2.0
 49
1.0
 74
     0
 49
-0.5
 74
     0
 49
0.0
 74
     0
 49
-0.5
 74
     0
  0
LTYPE
  5
7B
330
43
100
AcDbSymbolTableRecord
100
AcDbLinetypeTableRecord
  2
DASHED2
 70
     0
  3
Dashed2 _ _ _ _ _ _ _ _ _ _ _ _ _ _ _ _ _ 
 72
    65
 73
     2
 40
0.375
 49
0.25
 74
     0
 49
-0.125
 74
     0
  0
LTYPE
  5
7C
330
43
100
AcDbSymbolTableRecord
100
AcDbLinetypeTableRecord
  2
DASHEDX2
 70
     0
  3
Dashedx2 ____  ____  ____  ____  ____  ___
 72
    65
 73
     2
 40
1.5
 49
1.0
 74
     0
 49
-0.5
 74
     0
  0
LTYPE
  5
7D
330
43
100
AcDbSymbolTableRecord
100
AcDbLinetypeTableRecord
  2
DIVIDE
 70
     0
  3
Divide ____ . . ____ . . ____ . . ____ . . ____
 72
    65
 73
     6
 40
1.25
 49
0.5
 74
     0
 49
-0.25
 74
     0
 49
0.0
 74
     0
 49
-0.25
 74
     0
 49
0.0
 74
     0
 49
-0.25
 74
     0
  0
LTYPE
  5
7E
330
43
100
AcDbSymbolTableRecord
100
AcDbLinetypeTableRecord
  2
DIVIDE2
 70
     0
  3
Divide2 __..__..__..__..__..__..__..__.._
 72
    65
 73
     6
 40
0.625
 49
0.25
 74
     0
 49
-0.125
 74
     0
 49
0.0
 74
     0
 49
-0.125
 74
     0
 49
0.0
 74
     0
 49
-0.125
 74
     0
  0
LTYPE
  5
7F
330
43
100
AcDbSymbolTableRecord
100
AcDbLinetypeTableRecord
  2
DIVIDEX2
 70
     0
  3
Dividex2 ________  .  .  ________  .  .  _
 72
    65
 73
     6
 40
2.5
 49
1.0
 74
     0
 49
-0.5
 74
     0
 49
0.0
 74
     0
 49
-0.5
 74
     0
 49
0.0
 74
     0
 49
-0.5
 74
     0
  0
LTYPE
  5
80
330
43
100
AcDbSymbolTableRecord
100
AcDbLinetypeTableRecord
  2
DOT
 70
     0
  3
Dot . . . . . . . . . . . . . . . . . . . . . . . .
 72
    65
 73
     2
 40
0.25
 49
0.0
 74
     0
 49
-0.25
 74
     0
  0
LTYPE
  5
81
330
43
100
AcDbSymbolTableRecord
100
AcDbLinetypeTableRecord
  2
DOT2
 70
     0
  3
Dot2 ........................................
 72
    65
 73
     2
 40
0.125
 49
0.0
 74
     0
 49
-0.125
 74
     0
  0
LTYPE
  5
82
330
43
100
AcDbSymbolTableRecord
100
AcDbLinetypeTableRecord
  2
DOTX2
 70
     0
  3
Dotx2 .  .  .  .  .  .  .  .  .  .  .  .  .  .
 72
    65
 73
     2
 40
0.5
 49
0.0
 74
     0
 49
-0.5
 74
     0
  0
LTYPE
  5
83
330
43
100
AcDbSymbolTableRecord
100
AcDbLinetypeTableRecord
  2
HIDDENX2
 70
     0
  3
Hiddenx2 ____ ____ ____ ____ ____ ____ ____ 
 72
    65
 73
     2
 40
0.75
 49
0.5
 74
     0
 49
-0.25
 74
     0
  0
LTYPE
  5
84
330
43
100
AcDbSymbolTableRecord
100
AcDbLinetypeTableRecord
  2
PHANTOM
 70
     0
  3
Phantom ______  __  __  ______  __  __  ______ 
 72
    65
 73
     6
 40
2.5
 49
1.25
 74
     0
 49
-0.25
 74
     0
 49
0.25
 74
     0
 49
-0.25
 74
     0
 49
0.25
 74
     0
 49
-0.25
 74
     0
  0
LTYPE
  5
85
330
43
100
AcDbSymbolTableRecord
100
AcDbLinetypeTableRecord
  2
PHANTOM2
 70
     0
  3
Phantom2 ___ _ _ ___ _ _ ___ _ _ ___ _ _
 72
    65
 73
     6
 40
1.25
 49
0.625
 74
     0
 49
-0.125
 74
     0
 49
0.125
 74
     0
 49
-0.125
 74
     0
 49
0.125
 74
     0
 49
-0.125
 74
     0
  0
LTYPE
  5
86
330
43
100
AcDbSymbolTableRecord
100
AcDbLinetypeTableRecord
  2
PHANTOMX2
 70
     0
  3
Phantomx2 ____________    ____    ____   _
 72
    65
 73
     6
 40
5.0
 49
2.5
 74
     0
 49
-0.5
 74
     0
 49
0.5
 74
     0
 49
-0.5
 74
     0
 49
0.5
 74
     0
 49
-0.5
 74
     0
  0
ENDTAB
  0
TABLE
  2
LAYER
  5
40
330
0
100
AcDbSymbolTable
 70
     4
  0
LAYER
  5
4E
330
40
100
AcDbSymbolTableRecord
100
AcDbLayerTableRecord
  2
0
 70
     0
 62
     7
  6
CONTINUOUS
  0
LAYER
  5
9
330
40
100
AcDbSymbolTableRecord
100
AcDbLayerTableRecord
  2
HOLME
 70
     0
 62
   247
  6
CONTINUOUS
  0
LAYER
  5
A
330
40
100
AcDbSymbolTableRecord
100
AcDbLayerTableRecord
  2
STUFEN
 70
     0
 62
   248
  6
CONTINUOUS
  0
LAYER
  5
B
330
40
100
AcDbSymbolTableRecord
100
AcDbLayerTableRecord
  2
BODEN
 70
     0
 62
     7
  6
CONTINUOUS
  0
ENDTAB
  0
TABLE
  2
STYLE
  5
41
330
0
100
AcDbSymbolTable
 70
     1
  0
STYLE
  5
4F
330
41
100
AcDbSymbolTableRecord
100
AcDbTextStyleTableRecord
  2
STANDARD
 70
     0
 40
0.0
 41
1.0
 50
0.0
 71
     0
 42
0.2
  3
Arial
  4

1001
ACAD
1000
Arial
1071
        0
  0
ENDTAB
  0
TABLE
  2
VIEW
  5
44
330
0
100
AcDbSymbolTable
 70
     0
  0
ENDTAB
  0
TABLE
  2
UCS
  5
45
330
0
100
AcDbSymbolTable
 70
     0
  0
ENDTAB
  0
TABLE
  2
APPID
  5
47
330
0
100
AcDbSymbolTable
 70
     6
  0
APPID
  5
50
330
47
100
AcDbSymbolTableRecord
100
AcDbRegAppTableRecord
  2
ACAD
 70
     0
  0
APPID
  5
68
330
47
100
AcDbSymbolTableRecord
100
AcDbRegAppTableRecord
  2
VD_INVISIBLE_NOT_FOR_READ
 70
     0
  0
APPID
  5
69
330
47
100
AcDbSymbolTableRecord
100
AcDbRegAppTableRecord
  2
VD_TEMPHATCH
 70
     0
  0
APPID
  5
6A
330
47
100
AcDbSymbolTableRecord
100
AcDbRegAppTableRecord
  2
VDEXTRAPARAM
 70
     0
  0
APPID
  5
6B
330
47
100
AcDbSymbolTableRecord
100
AcDbRegAppTableRecord
  2
PE_URL
 70
     0
  0
APPID
  5
6C
330
47
100
AcDbSymbolTableRecord
100
AcDbRegAppTableRecord
  2
VD_UNKNOWN
 70
     0
  0
ENDTAB
  0
TABLE
  2
DIMSTYLE
  5
48
330
0
100
AcDbSymbolTable
 70
     1
  0
DIMSTYLE
105
65
330
48
100
AcDbSymbolTableRecord
100
AcDbDimStyleTableRecord
  2
STANDARD
 70
     0
  3

  4

  5
VDDIM_DEFAULT
  6

  7

 40
1.0
 41
0.2
 42
0.05
 43
0.38
 44
0.2
 45
0.0
 46
0.0
 47
0.0
 48
0.0
140
0.2
141
0.09
142
0.0
143
25.4
144
1.0
145
0.0
146
1.0
147
0.09
 71
     0
 72
     0
 73
     0
 74
     0
 75
     0
 76
     0
 77
     0
 78
     0
170
     0
171
     2
172
     1
173
     0
174
     1
175
     0
176
     0
177
   256
178
   256
270
     2
271
     4
272
     4
273
     2
274
     2
340
4F
275
     0
280
     0
281
     0
282
     0
283
     1
284
     0
285
     0
286
     0
287
     3
288
     1
  0
ENDTAB
  0
TABLE
  2
BLOCK_RECORD
  5
3F
330
0
100
AcDbSymbolTable
 70
     3
  0
BLOCK_RECORD
  5
5D
330
3F
100
AcDbSymbolTableRecord
100
AcDbBlockTableRecord
  2
*MODEL_SPACE
  0
BLOCK_RECORD
  5
59
330
3F
100
AcDbSymbolTableRecord
100
AcDbBlockTableRecord
  2
*PAPER_SPACE
  0
BLOCK_RECORD
  5
6
330
3F
100
AcDbSymbolTableRecord
100
AcDbBlockTableRecord
  2
VDDIM_DEFAULT
  0
BLOCK_RECORD
  5
8
330
3F
100
AcDbSymbolTableRecord
100
AcDbBlockTableRecord
  2
VDDIM_NONE
  0
ENDTAB
  0
ENDSEC
  0
SECTION
  2
BLOCKS
  0
BLOCK
  5
5E
330
5D
100
AcDbEntity
  8
0
100
AcDbBlockBegin
  2
*MODEL_SPACE
 70
     0
 71
     0
 10
0.0
 20
0.0
 30
0.0
  3
*MODEL_SPACE
  1

  0
ENDBLK
  5
5F
330
5D
100
AcDbEntity
  8
0
100
AcDbBlockEnd
  0
BLOCK
  5
5A
330
59
100
AcDbEntity
 67
     1
  8
0
100
AcDbBlockBegin
  2
*PAPER_SPACE
 70
     0
 71
     0
 10
0.0
 20
0.0
 30
0.0
  3
*PAPER_SPACE
  1

  0
ENDBLK
  5
5B
330
59
100
AcDbEntity
 67
     1
  8
0
100
AcDbBlockEnd
  0
BLOCK
  5
87
330
6
100
AcDbEntity
  8
0
100
AcDbBlockBegin
  2
VDDIM_DEFAULT
 70
     0
 71
     0
 10
0.0
 20
0.0
 30
0.0
  3
VDDIM_DEFAULT
  1

  0
LWPOLYLINE
  5
7
330
6
100
AcDbEntity
  8
0
  6
CONTINUOUS
 62
     0
100
AcDbPolyline
 90
        4
 70
     0
 43
0.0
 10
0.0
 20
0.0
 10
-1.0
 20
-0.1665
 10
-1.0
 20
0.1665
 10
0.0
 20
0.0
1001
VDEXTRAPARAM
1071
        1
1071
        0
1071
        0
1040
1.0
1000

1000

1040
0.0
1040
0.0
  0
HATCH
  5
8B
330
6
100
AcDbEntity
  8
0
  6
CONTINUOUS
 62
     0
100
AcDbHatch
 10
0.0
 20
0.0
 30
0.0
210
0.0
220
0.0
230
1.0
  2
SOLID
 70
     1
 71
     0
 91
        1
 92
        2
 72
     0
 73
     1
 93
        3
 10
0.0
 20
0.0
 10
-1.0
 20
-0.1665
 10
-1.0
 20
0.1665
 97
        0
 75
     0
 76
     1
 98
        1
 10
0.0
 20
0.0
1001
VDEXTRAPARAM
1071
        1
1071
        0
1071
        0
1040
1.0
1000

1000

1040
0.0
1040
0.0
1001
VD_TEMPHATCH
1000
VD_TEMPHATCH
  0
ENDBLK
  5
88
330
6
100
AcDbEntity
  8
0
100
AcDbBlockEnd
  0
BLOCK
  5
89
330
8
100
AcDbEntity
  8
0
100
AcDbBlockBegin
  2
VDDIM_NONE
 70
     0
 71
     0
 10
0.0
 20
0.0
 30
0.0
  3
VDDIM_NONE
  1

  0
ENDBLK
  5
8A
330
8
100
AcDbEntity
  8
0
100
AcDbBlockEnd
  0
ENDSEC
  0
SECTION
  2
ENTITIES
  0
POLYLINE
  5
D
330
5D
100
AcDbEntity
  8
HOLME
100
AcDbPolyFaceMesh
 66
     1
 10
0.0
 20
0.0
 30
0.0
 70
    64
 71
    46
 72
    54
  0
VERTEX
  5
8D
330
D
100
AcDbEntity
  8
0
100
AcDbVertex
100
AcDbPolyFaceMeshVertex
 10
54.9999999999951
 20
-80.0
 30
185.1088891552395
 70
   192
  0
VERTEX
  5
8E
330
D
100
AcDbEntity
  8
0
100
AcDbVertex
100
AcDbPolyFaceMeshVertex
 10
54.99999999999072
 20
289.0371517214874
 30
351.1526903727763
 70
   192
  0
VERTEX
  5
8F
330
D
100
AcDbEntity
  8
0
100
AcDbVertex
100
AcDbPolyFaceMeshVertex
 10
54.9999999999867
 20
680.3759169940983
 30
503.930468150554
 70
   192
  0
VERTEX
  5
90
330
D
100
AcDbEntity
  8
0
100
AcDbVertex
100
AcDbPolyFaceMeshVertex
 10
54.99999999998268
 20
1103.895646786005
 30
656.7082459283317
 70
   192
  0
VERTEX
  5
91
330
D
100
AcDbEntity
  8
0
100
AcDbVertex
100
AcDbPolyFaceMeshVertex
 10
54.99999999997866
 20
1661.910681894786
 30
809.4860237061096
 70
   192
  0
VERTEX
  5
92
330
D
100
AcDbEntity
  8
0
100
AcDbVertex
100
AcDbPolyFaceMeshVertex
 10
54.99999999997745
 20
1945.0
 30
855.854652938736
 70
   192
  0
VERTEX
  5
93
330
D
100
AcDbEntity
  8
0
100
AcDbVertex
100
AcDbPolyFaceMeshVertex
 10
54.99999999997745
 20
1945.0
 30
855.854652938736
 70
   192
  0
VERTEX
  5
94
330
D
100
AcDbEntity
  8
0
100
AcDbVertex
100
AcDbPolyFaceMeshVertex
 10
54.99999999997745
 20
1960.0
 30
855.854652938736
 70
   192
  0
VERTEX
  5
95
330
D
100
AcDbEntity
  8
0
100
AcDbVertex
100
AcDbPolyFaceMeshVertex
 10
54.99999999998006
 20
1960.0
 30
757.3127755187066
 70
   192
  0
VERTEX
  5
96
330
D
100
AcDbEntity
  8
0
100
AcDbVertex
100
AcDbPolyFaceMeshVertex
 10
54.99999999998006
 20
1945.0
 30
757.3127755187066
 70
   192
  0
VERTEX
  5
97
330
D
100
AcDbEntity
  8
0
100
AcDbVertex
100
AcDbPolyFaceMeshVertex
 10
54.99999999998268
 20
1945.0
 30
658.7708980986772
 70
   192
  0
VERTEX
  5
98
330
D
100
AcDbEntity
  8
0
100
AcDbVertex
100
AcDbPolyFaceMeshVertex
 10
54.99999999998268
 20
1960.0
 30
658.7708980986772
 70
   192
  0
VERTEX
  5
99
330
D
100
AcDbEntity
  8
0
100
AcDbVertex
100
AcDbPolyFaceMeshVertex
 10
54.99999999998529
 20
1960.0
 30
560.2290206786479
 70
   192
  0
VERTEX
  5
9A
330
D
100
AcDbEntity
  8
0
100
AcDbVertex
100
AcDbPolyFaceMeshVertex
 10
54.99999999998529
 20
1945.0
 30
560.2290206786479
 70
   192
  0
VERTEX
  5
9B
330
D
100
AcDbEntity
  8
0
100
AcDbVertex
100
AcDbPolyFaceMeshVertex
 10
54.99999999998529
 20
1945.0
 30
560.2290206786479
 70
   192
  0
VERTEX
  5
9C
330
D
100
AcDbEntity
  8
0
100
AcDbVertex
100
AcDbPolyFaceMeshVertex
 10
54.99999999998619
 20
1740.171544655804
 30
525.5139762938904
 70
   192
  0
VERTEX
  5
9D
330
D
100
AcDbEntity
  8
0
100
AcDbVertex
100
AcDbPolyFaceMeshVertex
 10
54.9999999999902
 20
1176.455550785361
 30
372.7361985161126
 70
   192
  0
VERTEX
  5
9E
330
D
100
AcDbEntity
  8
0
100
AcDbVertex
100
AcDbPolyFaceMeshVertex
 10
54.99999999999422
 20
751.6348531469257
 30
219.9584207383348
 70
   192
  0
VERTEX
  5
9F
330
D
100
AcDbEntity
  8
0
100
AcDbVertex
100
AcDbPolyFaceMeshVertex
 10
55.00000000000001
 20
187.8864616823098
 30
0.0
 70
   192
  0
VERTEX
  5
A0
330
D
100
AcDbEntity
  8
0
100
AcDbVertex
100
AcDbPolyFaceMeshVertex
 10
55.00000000000001
 20
187.8864616823098
 30
0.0
 70
   192
  0
VERTEX
  5
A1
330
D
100
AcDbEntity
  8
0
100
AcDbVertex
100
AcDbPolyFaceMeshVertex
 10
55.0
 20
-80.0
 30
0.0
 70
   192
  0
VERTEX
  5
A2
330
D
100
AcDbEntity
  8
0
100
AcDbVertex
100
AcDbPolyFaceMeshVertex
 10
55.0
 20
-80.0
 30
0.0
 70
   192
  0
VERTEX
  5
A3
330
D
100
AcDbEntity
  8
0
100
AcDbVertex
100
AcDbPolyFaceMeshVertex
 10
54.9999999999951
 20
-80.0
 30
185.1088891552395
 70
   192
  0
VERTEX
  5
A4
330
D
100
AcDbEntity
  8
0
100
AcDbVertex
100
AcDbPolyFaceMeshVertex
 10
39.9999999999951
 20
-80.0
 30
185.1088891552391
 70
   192
  0
VERTEX
  5
A5
330
D
100
AcDbEntity
  8
0
100
AcDbVertex
100
AcDbPolyFaceMeshVertex
 10
39.99999999999072
 20
289.0371517214874
 30
351.1526903727759
 70
   192
  0
VERTEX
  5
A6
330
D
100
AcDbEntity
  8
0
100
AcDbVertex
100
AcDbPolyFaceMeshVertex
 10
39.9999999999867
 20
680.3759169940983
 30
503.9304681505536
 70
   192
  0
VERTEX
  5
A7
330
D
100
AcDbEntity
  8
0
100
AcDbVertex
100
AcDbPolyFaceMeshVertex
 10
39.99999999998268
 20
1103.895646786005
 30
656.7082459283314
 70
   192
  0
VERTEX
  5
A8
330
D
100
AcDbEntity
  8
0
100
AcDbVertex
100
AcDbPolyFaceMeshVertex
 10
39.99999999997866
 20
1661.910681894786
 30
809.4860237061092
 70
   192
  0
VERTEX
  5
A9
330
D
100
AcDbEntity
  8
0
100
AcDbVertex
100
AcDbPolyFaceMeshVertex
 10
39.99999999997745
 20
1945.0
 30
855.8546529387356
 70
   192
  0
VERTEX
  5
AA
330
D
100
AcDbEntity
  8
0
100
AcDbVertex
100
AcDbPolyFaceMeshVertex
 10
39.99999999997745
 20
1945.0
 30
855.8546529387356
 70
   192
  0
VERTEX
  5
AB
330
D
100
AcDbEntity
  8
0
100
AcDbVertex
100
AcDbPolyFaceMeshVertex
 10
39.99999999997745
 20
1960.0
 30
855.8546529387356
 70
   192
  0
VERTEX
  5
AC
330
D
100
AcDbEntity
  8
0
100
AcDbVertex
100
AcDbPolyFaceMeshVertex
 10
39.99999999998006
 20
1960.0
 30
757.3127755187063
 70
   192
  0
VERTEX
  5
AD
330
D
100
AcDbEntity
  8
0
100
AcDbVertex
100
AcDbPolyFaceMeshVertex
 10
39.99999999998006
 20
1945.0
 30
757.3127755187063
 70
   192
  0
VERTEX
  5
AE
330
D
100
AcDbEntity
  8
0
100
AcDbVertex
100
AcDbPolyFaceMeshVertex
 10
39.99999999998268
 20
1945.0
 30
658.7708980986769
 70
   192
  0
VERTEX
  5
AF
330
D
100
AcDbEntity
  8
0
100
AcDbVertex
100
AcDbPolyFaceMeshVertex
 10
39.99999999998268
 20
1960.0
 30
658.7708980986769
 70
   192
  0
VERTEX
  5
B0
330
D
100
AcDbEntity
  8
0
100
AcDbVertex
100
AcDbPolyFaceMeshVertex
 10
39.99999999998529
 20
1960.0
 30
560.2290206786475
 70
   192
  0
VERTEX
  5
B1
330
D
100
AcDbEntity
  8
0
100
AcDbVertex
100
AcDbPolyFaceMeshVertex
 10
39.99999999998529
 20
1945.0
 30
560.2290206786475
 70
   192
  0
VERTEX
  5
B2
330
D
100
AcDbEntity
  8
0
100
AcDbVertex
100
AcDbPolyFaceMeshVertex
 10
39.99999999998529
 20
1945.0
 30
560.2290206786475
 70
   192
  0
VERTEX
  5
B3
330
D
100
AcDbEntity
  8
0
100
AcDbVertex
100
AcDbPolyFaceMeshVertex
 10
39.99999999998619
 20
1740.171544655804
 30
525.5139762938901
 70
   192
  0
VERTEX
  5
B4
330
D
100
AcDbEntity
  8
0
100
AcDbVertex
100
AcDbPolyFaceMeshVertex
 10
39.9999999999902
 20
1176.455550785361
 30
372.7361985161122
 70
   192
  0
VERTEX
  5
B5
330
D
100
AcDbEntity
  8
0
100
AcDbVertex
100
AcDbPolyFaceMeshVertex
 10
39.99999999999422
 20
751.6348531469257
 30
219.9584207383344
 70
   192
  0
VERTEX
  5
B6
330
D
100
AcDbEntity
  8
0
100
AcDbVertex
100
AcDbPolyFaceMeshVertex
 10
40.00000000000001
 20
187.8864616823098
 30
-0.0000000000003973
 70
   192
  0
VERTEX
  5
B7
330
D
100
AcDbEntity
  8
0
100
AcDbVertex
100
AcDbPolyFaceMeshVertex
 10
40.00000000000001
 20
187.8864616823098
 30
-0.0000000000003973
 70
   192
  0
VERTEX
  5
B8
330
D
100
AcDbEntity
  8
0
100
AcDbVertex
100
AcDbPolyFaceMeshVertex
 10
40.0
 20
-80.0
 30
-0.0000000000003973
 70
   192
  0
VERTEX
  5
B9
330
D
100
AcDbEntity
  8
0
100
AcDbVertex
100
AcDbPolyFaceMeshVertex
 10
40.0
 20
-80.0
 30
-0.0000000000003973
 70
   192
  0
VERTEX
  5
BA
330
D
100
AcDbEntity
  8
0
100
AcDbVertex
100
AcDbPolyFaceMeshVertex
 10
39.9999999999951
 20
-80.0
 30
185.1088891552391
 70
   192
  0
VERTEX
  5
BB
330
D
100
AcDbEntity
  8
0
 62
     0
100
AcDbFaceRecord
 10
0.0
 20
0.0
 30
0.0
 70
   128
 71
   -23
 72
    -2
 73
    -3
 74
    -3
  0
VERTEX
  5
BC
330
D
100
AcDbEntity
  8
0
 62
     0
100
AcDbFaceRecord
 10
0.0
 20
0.0
 30
0.0
 70
   128
 71
   -46
 72
   -25
 73
   -26
 74
   -26
  0
VERTEX
  5
BD
330
D
100
AcDbEntity
  8
0
 62
     0
100
AcDbFaceRecord
 10
0.0
 20
0.0
 30
0.0
 70
   128
 71
   -23
 72
    -3
 73
    -4
 74
    -4
  0
VERTEX
  5
BE
330
D
100
AcDbEntity
  8
0
 62
     0
100
AcDbFaceRecord
 10
0.0
 20
0.0
 30
0.0
 70
   128
 71
   -46
 72
   -26
 73
   -27
 74
   -27
  0
VERTEX
  5
BF
330
D
100
AcDbEntity
  8
0
 62
     0
100
AcDbFaceRecord
 10
0.0
 20
0.0
 30
0.0
 70
   128
 71
   -23
 72
    -4
 73
    -5
 74
    -5
  0
VERTEX
  5
C0
330
D
100
AcDbEntity
  8
0
 62
     0
100
AcDbFaceRecord
 10
0.0
 20
0.0
 30
0.0
 70
   128
 71
   -46
 72
   -27
 73
   -28
 74
   -28
  0
VERTEX
  5
C1
330
D
100
AcDbEntity
  8
0
 62
     0
100
AcDbFaceRecord
 10
0.0
 20
0.0
 30
0.0
 70
   128
 71
   -23
 72
    -5
 73
    -6
 74
    -6
  0
VERTEX
  5
C2
330
D
100
AcDbEntity
  8
0
 62
     0
100
AcDbFaceRecord
 10
0.0
 20
0.0
 30
0.0
 70
   128
 71
   -46
 72
   -28
 73
   -29
 74
   -29
  0
VERTEX
  5
C3
330
D
100
AcDbEntity
  8
0
 62
     0
100
AcDbFaceRecord
 10
0.0
 20
0.0
 30
0.0
 70
   128
 71
   -23
 72
    -7
 73
    -8
 74
    -8
  0
VERTEX
  5
C4
330
D
100
AcDbEntity
  8
0
 62
     0
100
AcDbFaceRecord
 10
0.0
 20
0.0
 30
0.0
 70
   128
 71
   -46
 72
   -30
 73
   -31
 74
   -31
  0
VERTEX
  5
C5
330
D
100
AcDbEntity
  8
0
 62
     0
100
AcDbFaceRecord
 10
0.0
 20
0.0
 30
0.0
 70
   128
 71
    -8
 72
    -9
 73
   -10
 74
   -10
  0
VERTEX
  5
C6
330
D
100
AcDbEntity
  8
0
 62
     0
100
AcDbFaceRecord
 10
0.0
 20
0.0
 30
0.0
 70
   128
 71
   -31
 72
   -32
 73
   -33
 74
   -33
  0
VERTEX
  5
C7
330
D
100
AcDbEntity
  8
0
 62
     0
100
AcDbFaceRecord
 10
0.0
 20
0.0
 30
0.0
 70
   128
 71
   -11
 72
   -12
 73
   -13
 74
   -13
  0
VERTEX
  5
C8
330
D
100
AcDbEntity
  8
0
 62
     0
100
AcDbFaceRecord
 10
0.0
 20
0.0
 30
0.0
 70
   128
 71
   -34
 72
   -35
 73
   -36
 74
   -36
  0
VERTEX
  5
C9
330
D
100
AcDbEntity
  8
0
 62
     0
100
AcDbFaceRecord
 10
0.0
 20
0.0
 30
0.0
 70
   128
 71
   -11
 72
   -13
 73
   -14
 74
   -14
  0
VERTEX
  5
CA
330
D
100
AcDbEntity
  8
0
 62
     0
100
AcDbFaceRecord
 10
0.0
 20
0.0
 30
0.0
 70
   128
 71
   -34
 72
   -36
 73
   -37
 74
   -37
  0
VERTEX
  5
CB
330
D
100
AcDbEntity
  8
0
 62
     0
100
AcDbFaceRecord
 10
0.0
 20
0.0
 30
0.0
 70
   128
 71
   -11
 72
   -15
 73
   -16
 74
   -16
  0
VERTEX
  5
CC
330
D
100
AcDbEntity
  8
0
 62
     0
100
AcDbFaceRecord
 10
0.0
 20
0.0
 30
0.0
 70
   128
 71
   -34
 72
   -38
 73
   -39
 74
   -39
  0
VERTEX
  5
CD
330
D
100
AcDbEntity
  8
0
 62
     0
100
AcDbFaceRecord
 10
0.0
 20
0.0
 30
0.0
 70
   128
 71
   -11
 72
   -16
 73
   -17
 74
   -17
  0
VERTEX
  5
CE
330
D
100
AcDbEntity
  8
0
 62
     0
100
AcDbFaceRecord
 10
0.0
 20
0.0
 30
0.0
 70
   128
 71
   -34
 72
   -39
 73
   -40
 74
   -40
  0
VERTEX
  5
CF
330
D
100
AcDbEntity
  8
0
 62
     0
100
AcDbFaceRecord
 10
0.0
 20
0.0
 30
0.0
 70
   128
 71
   -11
 72
   -17
 73
   -18
 74
   -18
  0
VERTEX
  5
D0
330
D
100
AcDbEntity
  8
0
 62
     0
100
AcDbFaceRecord
 10
0.0
 20
0.0
 30
0.0
 70
   128
 71
   -34
 72
   -40
 73
   -41
 74
   -41
  0
VERTEX
  5
D1
330
D
100
AcDbEntity
  8
0
 62
     0
100
AcDbFaceRecord
 10
0.0
 20
0.0
 30
0.0
 70
   128
 71
   -18
 72
   -20
 73
   -21
 74
   -21
  0
VERTEX
  5
D2
330
D
100
AcDbEntity
  8
0
 62
     0
100
AcDbFaceRecord
 10
0.0
 20
0.0
 30
0.0
 70
   128
 71
   -41
 72
   -43
 73
   -44
 74
   -44
  0
VERTEX
  5
D3
330
D
100
AcDbEntity
  8
0
 62
     0
100
AcDbFaceRecord
 10
0.0
 20
0.0
 30
0.0
 70
   128
 71
   -18
 72
   -22
 73
   -23
 74
   -23
  0
VERTEX
  5
D4
330
D
100
AcDbEntity
  8
0
 62
     0
100
AcDbFaceRecord
 10
0.0
 20
0.0
 30
0.0
 70
   128
 71
   -41
 72
   -45
 73
   -46
 74
   -46
  0
VERTEX
  5
D5
330
D
100
AcDbEntity
  8
0
 62
     0
100
AcDbFaceRecord
 10
0.0
 20
0.0
 30
0.0
 70
   128
 71
   -18
 72
   -23
 73
    -8
 74
    -8
  0
VERTEX
  5
D6
330
D
100
AcDbEntity
  8
0
 62
     0
100
AcDbFaceRecord
 10
0.0
 20
0.0
 30
0.0
 70
   128
 71
   -41
 72
   -46
 73
   -31
 74
   -31
  0
VERTEX
  5
D7
330
D
100
AcDbEntity
  8
0
 62
     0
100
AcDbFaceRecord
 10
0.0
 20
0.0
 30
0.0
 70
   128
 71
   -18
 72
    -8
 73
   -10
 74
   -10
  0
VERTEX
  5
D8
330
D
100
AcDbEntity
  8
0
 62
     0
100
AcDbFaceRecord
 10
0.0
 20
0.0
 30
0.0
 70
   128
 71
   -41
 72
   -31
 73
   -33
 74
   -33
  0
VERTEX
  5
D9
330
D
100
AcDbEntity
  8
0
 62
     0
100
AcDbFaceRecord
 10
0.0
 20
0.0
 30
0.0
 70
   128
 71
   -10
 72
   -11
 73
   -18
 74
   -18
  0
VERTEX
  5
DA
330
D
100
AcDbEntity
  8
0
 62
     0
100
AcDbFaceRecord
 10
0.0
 20
0.0
 30
0.0
 70
   128
 71
   -33
 72
   -34
 73
   -41
 74
   -41
  0
VERTEX
  5
DB
330
D
100
AcDbEntity
  8
0
 62
     0
100
AcDbFaceRecord
 10
0.0
 20
0.0
 30
0.0
 70
   128
 71
     1
 72
     2
 73
    25
 74
    24
  0
VERTEX
  5
DC
330
D
100
AcDbEntity
  8
0
 62
     0
100
AcDbFaceRecord
 10
0.0
 20
0.0
 30
0.0
 70
   128
 71
     2
 72
     3
 73
    26
 74
    25
  0
VERTEX
  5
DD
330
D
100
AcDbEntity
  8
0
 62
     0
100
AcDbFaceRecord
 10
0.0
 20
0.0
 30
0.0
 70
   128
 71
     3
 72
     4
 73
    27
 74
    26
  0
VERTEX
  5
DE
330
D
100
AcDbEntity
  8
0
 62
     0
100
AcDbFaceRecord
 10
0.0
 20
0.0
 30
0.0
 70
   128
 71
     4
 72
     5
 73
    28
 74
    27
  0
VERTEX
  5
DF
330
D
100
AcDbEntity
  8
0
 62
     0
100
AcDbFaceRecord
 10
0.0
 20
0.0
 30
0.0
 70
   128
 71
     5
 72
     6
 73
    29
 74
    28
  0
VERTEX
  5
E0
330
D
100
AcDbEntity
  8
0
 62
     0
100
AcDbFaceRecord
 10
0.0
 20
0.0
 30
0.0
 70
   128
 71
     6
 72
     7
 73
    30
 74
    29
  0
VERTEX
  5
E1
330
D
100
AcDbEntity
  8
0
 62
     0
100
AcDbFaceRecord
 10
0.0
 20
0.0
 30
0.0
 70
   128
 71
     7
 72
     8
 73
    31
 74
    30
  0
VERTEX
  5
E2
330
D
100
AcDbEntity
  8
0
 62
     0
100
AcDbFaceRecord
 10
0.0
 20
0.0
 30
0.0
 70
   128
 71
     8
 72
     9
 73
    32
 74
    31
  0
VERTEX
  5
E3
330
D
100
AcDbEntity
  8
0
 62
     0
100
AcDbFaceRecord
 10
0.0
 20
0.0
 30
0.0
 70
   128
 71
     9
 72
    10
 73
    33
 74
    32
  0
VERTEX
  5
E4
330
D
100
AcDbEntity
  8
0
 62
     0
100
AcDbFaceRecord
 10
0.0
 20
0.0
 30
0.0
 70
   128
 71
    10
 72
    11
 73
    34
 74
    33
  0
VERTEX
  5
E5
330
D
100
AcDbEntity
  8
0
 62
     0
100
AcDbFaceRecord
 10
0.0
 20
0.0
 30
0.0
 70
   128
 71
    11
 72
    12
 73
    35
 74
    34
  0
VERTEX
  5
E6
330
D
100
AcDbEntity
  8
0
 62
     0
100
AcDbFaceRecord
 10
0.0
 20
0.0
 30
0.0
 70
   128
 71
    12
 72
    13
 73
    36
 74
    35
  0
VERTEX
  5
E7
330
D
100
AcDbEntity
  8
0
 62
     0
100
AcDbFaceRecord
 10
0.0
 20
0.0
 30
0.0
 70
   128
 71
    13
 72
    14
 73
    37
 74
    36
  0
VERTEX
  5
E8
330
D
100
AcDbEntity
  8
0
 62
     0
100
AcDbFaceRecord
 10
0.0
 20
0.0
 30
0.0
 70
   128
 71
    14
 72
    15
 73
    38
 74
    37
  0
VERTEX
  5
E9
330
D
100
AcDbEntity
  8
0
 62
     0
100
AcDbFaceRecord
 10
0.0
 20
0.0
 30
0.0
 70
   128
 71
    15
 72
    16
 73
    39
 74
    38
  0
VERTEX
  5
EA
330
D
100
AcDbEntity
  8
0
 62
     0
100
AcDbFaceRecord
 10
0.0
 20
0.0
 30
0.0
 70
   128
 71
    16
 72
    17
 73
    40
 74
    39
  0
VERTEX
  5
EB
330
D
100
AcDbEntity
  8
0
 62
     0
100
AcDbFaceRecord
 10
0.0
 20
0.0
 30
0.0
 70
   128
 71
    17
 72
    18
 73
    41
 74
    40
  0
VERTEX
  5
EC
330
D
100
AcDbEntity
  8
0
 62
     0
100
AcDbFaceRecord
 10
0.0
 20
0.0
 30
0.0
 70
   128
 71
    18
 72
    19
 73
    42
 74
    41
  0
VERTEX
  5
ED
330
D
100
AcDbEntity
  8
0
 62
     0
100
AcDbFaceRecord
 10
0.0
 20
0.0
 30
0.0
 70
   128
 71
    19
 72
    20
 73
    43
 74
    42
  0
VERTEX
  5
EE
330
D
100
AcDbEntity
  8
0
 62
     0
100
AcDbFaceRecord
 10
0.0
 20
0.0
 30
0.0
 70
   128
 71
    20
 72
    21
 73
    44
 74
    43
  0
VERTEX
  5
EF
330
D
100
AcDbEntity
  8
0
 62
     0
100
AcDbFaceRecord
 10
0.0
 20
0.0
 30
0.0
 70
   128
 71
    21
 72
    22
 73
    45
 74
    44
  0
VERTEX
  5
F0
330
D
100
AcDbEntity
  8
0
 62
     0
100
AcDbFaceRecord
 10
0.0
 20
0.0
 30
0.0
 70
   128
 71
    22
 72
    23
 73
    46
 74
    45
  0
SEQEND
  5
8C
330
D
100
AcDbEntity
  8
HOLME
  0
POLYLINE
  5
F
330
5D
100
AcDbEntity
  8
HOLME
100
AcDbPolyFaceMesh
 66
     1
 10
0.0
 20
0.0
 30
0.0
 70
    64
 71
    60
 72
    75
  0
VERTEX
  5
F2
330
F
100
AcDbEntity
  8
0
100
AcDbVertex
100
AcDbPolyFaceMeshVertex
 10
55.0
 20
1945.000000000015
 30
560.2290206786479
 70
   192
  0
VERTEX
  5
F3
330
F
100
AcDbEntity
  8
0
100
AcDbVertex
100
AcDbPolyFaceMeshVertex
 10
55.0
 20
1945.000000000018
 30
658.7708980986772
 70
   192
  0
VERTEX
  5
F4
330
F
100
AcDbEntity
  8
0
100
AcDbVertex
100
AcDbPolyFaceMeshVertex
 10
40.0
 20
1945.000000000018
 30
658.7708980986772
 70
   192
  0
VERTEX
  5
F5
330
F
100
AcDbEntity
  8
0
100
AcDbVertex
100
AcDbPolyFaceMeshVertex
 10
40.0
 20
1945.00000000002
 30
757.3127755187066
 70
   192
  0
VERTEX
  5
F6
330
F
100
AcDbEntity
  8
0
100
AcDbVertex
100
AcDbPolyFaceMeshVertex
 10
55.0
 20
1945.00000000002
 30
757.3127755187066
 70
   192
  0
VERTEX
  5
F7
330
F
100
AcDbEntity
  8
0
100
AcDbVertex
100
AcDbPolyFaceMeshVertex
 10
55.0
 20
1945.000000000023
 30
855.854652938736
 70
   192
  0
VERTEX
  5
F8
330
F
100
AcDbEntity
  8
0
100
AcDbVertex
100
AcDbPolyFaceMeshVertex
 10
55.0
 20
1945.000000000023
 30
855.854652938736
 70
   192
  0
VERTEX
  5
F9
330
F
100
AcDbEntity
  8
0
100
AcDbVertex
100
AcDbPolyFaceMeshVertex
 10
647.3032514219372
 20
1945.000000000026
 30
962.2638014838874
 70
   192
  0
VERTEX
  5
FA
330
F
100
AcDbEntity
  8
0
100
AcDbVertex
100
AcDbPolyFaceMeshVertex
 10
1080.506707044541
 20
1945.00000000003
 30
1115.041579261665
 70
   192
  0
VERTEX
  5
FB
330
F
100
AcDbEntity
  8
0
100
AcDbVertex
100
AcDbPolyFaceMeshVertex
 10
1461.266338883563
 20
1945.000000000034
 30
1267.819357039443
 70
   192
  0
VERTEX
  5
FC
330
F
100
AcDbEntity
  8
0
100
AcDbVertex
100
AcDbPolyFaceMeshVertex
 10
1834.110720072058
 20
1945.000000000038
 30
1420.597134817221
 70
   192
  0
VERTEX
  5
FD
330
F
100
AcDbEntity
  8
0
100
AcDbVertex
100
AcDbPolyFaceMeshVertex
 10
2191.607772396515
 20
1945.000000000042
 30
1573.374912594999
 70
   192
  0
VERTEX
  5
FE
330
F
100
AcDbEntity
  8
0
100
AcDbVertex
100
AcDbPolyFaceMeshVertex
 10
2577.628928171198
 20
1945.000000000046
 30
1726.152690372776
 70
   192
  0
VERTEX
  5
FF
330
F
100
AcDbEntity
  8
0
100
AcDbVertex
100
AcDbPolyFaceMeshVertex
 10
3345.0
 20
1945.000000000049
 30
1860.43386217554
 70
   192
  0
VERTEX
  5
100
330
F
100
AcDbEntity
  8
0
100
AcDbVertex
100
AcDbPolyFaceMeshVertex
 10
3345.0
 20
1945.000000000049
 30
1860.43386217554
 70
   192
  0
VERTEX
  5
101
330
F
100
AcDbEntity
  8
0
100
AcDbVertex
100
AcDbPolyFaceMeshVertex
 10
3360.0
 20
1945.000000000049
 30
1860.43386217554
 70
   192
  0
VERTEX
  5
102
330
F
100
AcDbEntity
  8
0
100
AcDbVertex
100
AcDbPolyFaceMeshVertex
 10
3360.0
 20
1945.000000000047
 30
1762.155024277109
 70
   192
  0
VERTEX
  5
103
330
F
100
AcDbEntity
  8
0
100
AcDbVertex
100
AcDbPolyFaceMeshVertex
 10
3345.0
 20
1945.000000000047
 30
1762.155024277109
 70
   192
  0
VERTEX
  5
104
330
F
100
AcDbEntity
  8
0
100
AcDbVertex
100
AcDbPolyFaceMeshVertex
 10
3345.0
 20
1945.000000000044
 30
1663.876186378677
 70
   192
  0
VERTEX
  5
105
330
F
100
AcDbEntity
  8
0
100
AcDbVertex
100
AcDbPolyFaceMeshVertex
 10
3360.0
 20
1945.000000000044
 30
1663.876186378677
 70
   192
  0
VERTEX
  5
106
330
F
100
AcDbEntity
  8
0
100
AcDbVertex
100
AcDbPolyFaceMeshVertex
 10
3360.0
 20
1945.000000000041
 30
1565.597348480246
 70
   192
  0
VERTEX
  5
107
330
F
100
AcDbEntity
  8
0
100
AcDbVertex
100
AcDbPolyFaceMeshVertex
 10
3345.0
 20
1945.000000000041
 30
1565.597348480246
 70
   192
  0
VERTEX
  5
108
330
F
100
AcDbEntity
  8
0
100
AcDbVertex
100
AcDbPolyFaceMeshVertex
 10
3345.0
 20
1945.000000000041
 30
1565.597348480246
 70
   192
  0
VERTEX
  5
109
330
F
100
AcDbEntity
  8
0
100
AcDbVertex
100
AcDbPolyFaceMeshVertex
 10
2649.116732867717
 20
1945.000000000038
 30
1442.180642960557
 70
   192
  0
VERTEX
  5
10A
330
F
100
AcDbEntity
  8
0
100
AcDbVertex
100
AcDbPolyFaceMeshVertex
 10
2262.703785892292
 20
1945.000000000034
 30
1289.402865182779
 70
   192
  0
VERTEX
  5
10B
330
F
100
AcDbEntity
  8
0
100
AcDbVertex
100
AcDbPolyFaceMeshVertex
 10
1905.15024828655
 20
1945.00000000003
 30
1136.625087405002
 70
   192
  0
VERTEX
  5
10C
330
F
100
AcDbEntity
  8
0
100
AcDbVertex
100
AcDbPolyFaceMeshVertex
 10
1532.345949676972
 20
1945.000000000026
 30
983.8473096272237
 70
   192
  0
VERTEX
  5
10D
330
F
100
AcDbEntity
  8
0
100
AcDbVertex
100
AcDbPolyFaceMeshVertex
 10
1151.894934692151
 20
1945.000000000022
 30
831.0695318494459
 70
   192
  0
VERTEX
  5
10E
330
F
100
AcDbEntity
  8
0
100
AcDbVertex
100
AcDbPolyFaceMeshVertex
 10
720.3065727583739
 20
1945.000000000018
 30
678.2917540716683
 70
   192
  0
VERTEX
  5
10F
330
F
100
AcDbEntity
  8
0
100
AcDbVertex
100
AcDbPolyFaceMeshVertex
 10
55.0
 20
1945.000000000015
 30
560.2290206786479
 70
   192
  0
VERTEX
  5
110
330
F
100
AcDbEntity
  8
0
100
AcDbVertex
100
AcDbPolyFaceMeshVertex
 10
55.0
 20
1960.000000000015
 30
560.2290206786475
 70
   192
  0
VERTEX
  5
111
330
F
100
AcDbEntity
  8
0
100
AcDbVertex
100
AcDbPolyFaceMeshVertex
 10
55.0
 20
1960.000000000018
 30
658.7708980986769
 70
   192
  0
VERTEX
  5
112
330
F
100
AcDbEntity
  8
0
100
AcDbVertex
100
AcDbPolyFaceMeshVertex
 10
40.0
 20
1960.000000000018
 30
658.7708980986769
 70
   192
  0
VERTEX
  5
113
330
F
100
AcDbEntity
  8
0
100
AcDbVertex
100
AcDbPolyFaceMeshVertex
 10
40.0
 20
1960.00000000002
 30
757.3127755187063
 70
   192
  0
VERTEX
  5
114
330
F
100
AcDbEntity
  8
0
100
AcDbVertex
100
AcDbPolyFaceMeshVertex
 10
55.0
 20
1960.00000000002
 30
757.3127755187063
 70
   192
  0
VERTEX
  5
115
330
F
100
AcDbEntity
  8
0
100
AcDbVertex
100
AcDbPolyFaceMeshVertex
 10
55.0
 20
1960.000000000023
 30
855.8546529387356
 70
   192
  0
VERTEX
  5
116
330
F
100
AcDbEntity
  8
0
100
AcDbVertex
100
AcDbPolyFaceMeshVertex
 10
55.0
 20
1960.000000000023
 30
855.8546529387356
 70
   192
  0
VERTEX
  5
117
330
F
100
AcDbEntity
  8
0
100
AcDbVertex
100
AcDbPolyFaceMeshVertex
 10
647.3032514219372
 20
1960.000000000026
 30
962.2638014838871
 70
   192
  0
VERTEX
  5
118
330
F
100
AcDbEntity
  8
0
100
AcDbVertex
100
AcDbPolyFaceMeshVertex
 10
1080.506707044541
 20
1960.00000000003
 30
1115.041579261665
 70
   192
  0
VERTEX
  5
119
330
F
100
AcDbEntity
  8
0
100
AcDbVertex
100
AcDbPolyFaceMeshVertex
 10
1461.266338883563
 20
1960.000000000034
 30
1267.819357039442
 70
   192
  0
VERTEX
  5
11A
330
F
100
AcDbEntity
  8
0
100
AcDbVertex
100
AcDbPolyFaceMeshVertex
 10
1834.110720072058
 20
1960.000000000038
 30
1420.59713481722
 70
   192
  0
VERTEX
  5
11B
330
F
100
AcDbEntity
  8
0
100
AcDbVertex
100
AcDbPolyFaceMeshVertex
 10
2191.607772396515
 20
1960.000000000042
 30
1573.374912594998
 70
   192
  0
VERTEX
  5
11C
330
F
100
AcDbEntity
  8
0
100
AcDbVertex
100
AcDbPolyFaceMeshVertex
 10
2577.628928171198
 20
1960.000000000046
 30
1726.152690372776
 70
   192
  0
VERTEX
  5
11D
330
F
100
AcDbEntity
  8
0
100
AcDbVertex
100
AcDbPolyFaceMeshVertex
 10
3345.0
 20
1960.000000000049
 30
1860.43386217554
 70
   192
  0
VERTEX
  5
11E
330
F
100
AcDbEntity
  8
0
100
AcDbVertex
100
AcDbPolyFaceMeshVertex
 10
3345.0
 20
1960.000000000049
 30
1860.43386217554
 70
   192
  0
VERTEX
  5
11F
330
F
100
AcDbEntity
  8
0
100
AcDbVertex
100
AcDbPolyFaceMeshVertex
 10
3360.0
 20
1960.000000000049
 30
1860.43386217554
 70
   192
  0
VERTEX
  5
120
330
F
100
AcDbEntity
  8
0
100
AcDbVertex
100
AcDbPolyFaceMeshVertex
 10
3360.0
 20
1960.000000000047
 30
1762.155024277108
 70
   192
  0
VERTEX
  5
121
330
F
100
AcDbEntity
  8
0
100
AcDbVertex
100
AcDbPolyFaceMeshVertex
 10
3345.0
 20
1960.000000000047
 30
1762.155024277108
 70
   192
  0
VERTEX
  5
122
330
F
100
AcDbEntity
  8
0
100
AcDbVertex
100
AcDbPolyFaceMeshVertex
 10
3345.0
 20
1960.000000000044
 30
1663.876186378677
 70
   192
  0
VERTEX
  5
123
330
F
100
AcDbEntity
  8
0
100
AcDbVertex
100
AcDbPolyFaceMeshVertex
 10
3360.0
 20
1960.000000000044
 30
1663.876186378677
 70
   192
  0
VERTEX
  5
124
330
F
100
AcDbEntity
  8
0
100
AcDbVertex
100
AcDbPolyFaceMeshVertex
 10
3360.0
 20
1960.000000000041
 30
1565.597348480245
 70
   192
  0
VERTEX
  5
125
330
F
100
AcDbEntity
  8
0
100
AcDbVertex
100
AcDbPolyFaceMeshVertex
 10
3345.0
 20
1960.000000000041
 30
1565.597348480245
 70
   192
  0
VERTEX
  5
126
330
F
100
AcDbEntity
  8
0
100
AcDbVertex
100
AcDbPolyFaceMeshVertex
 10
3345.0
 20
1960.000000000041
 30
1565.597348480245
 70
   192
  0
VERTEX
  5
127
330
F
100
AcDbEntity
  8
0
100
AcDbVertex
100
AcDbPolyFaceMeshVertex
 10
2649.116732867717
 20
1960.000000000038
 30
1442.180642960557
 70
   192
  0
VERTEX
  5
128
330
F
100
AcDbEntity
  8
0
100
AcDbVertex
100
AcDbPolyFaceMeshVertex
 10
2262.703785892292
 20
1960.000000000034
 30
1289.402865182779
 70
   192
  0
VERTEX
  5
129
330
F
100
AcDbEntity
  8
0
100
AcDbVertex
100
AcDbPolyFaceMeshVertex
 10
1905.15024828655
 20
1960.00000000003
 30
1136.625087405001
 70
   192
  0
VERTEX
  5
12A
330
F
100
AcDbEntity
  8
0
100
AcDbVertex
100
AcDbPolyFaceMeshVertex
 10
1532.345949676972
 20
1960.000000000026
 30
983.8473096272234
 70
   192
  0
VERTEX
  5
12B
330
F
100
AcDbEntity
  8
0
100
AcDbVertex
100
AcDbPolyFaceMeshVertex
 10
1151.894934692151
 20
1960.000000000022
 30
831.0695318494455
 70
   192
  0
VERTEX
  5
12C
330
F
100
AcDbEntity
  8
0
100
AcDbVertex
100
AcDbPolyFaceMeshVertex
 10
720.3065727583739
 20
1960.000000000018
 30
678.2917540716679
 70
   192
  0
VERTEX
  5
12D
330
F
100
AcDbEntity
  8
0
100
AcDbVertex
100
AcDbPolyFaceMeshVertex
 10
55.0
 20
1960.000000000015
 30
560.2290206786475
 70
   192
  0
VERTEX
  5
12E
330
F
100
AcDbEntity
  8
0
 62
     0
100
AcDbFaceRecord
 10
0.0
 20
0.0
 30
0.0
 70
   128
 71
    -2
 72
    -3
 73
    -4
 74
    -4
  0
VERTEX
  5
12F
330
F
100
AcDbEntity
  8
0
 62
     0
100
AcDbFaceRecord
 10
0.0
 20
0.0
 30
0.0
 70
   128
 71
   -32
 72
   -33
 73
   -34
 74
   -34
  0
VERTEX
  5
130
330
F
100
AcDbEntity
  8
0
 62
     0
100
AcDbFaceRecord
 10
0.0
 20
0.0
 30
0.0
 70
   128
 71
    -2
 72
    -4
 73
    -5
 74
    -5
  0
VERTEX
  5
131
330
F
100
AcDbEntity
  8
0
 62
     0
100
AcDbFaceRecord
 10
0.0
 20
0.0
 30
0.0
 70
   128
 71
   -32
 72
   -34
 73
   -35
 74
   -35
  0
VERTEX
  5
132
330
F
100
AcDbEntity
  8
0
 62
     0
100
AcDbFaceRecord
 10
0.0
 20
0.0
 30
0.0
 70
   128
 71
    -2
 72
    -7
 73
    -8
 74
    -8
  0
VERTEX
  5
133
330
F
100
AcDbEntity
  8
0
 62
     0
100
AcDbFaceRecord
 10
0.0
 20
0.0
 30
0.0
 70
   128
 71
   -32
 72
   -37
 73
   -38
 74
   -38
  0
VERTEX
  5
134
330
F
100
AcDbEntity
  8
0
 62
     0
100
AcDbFaceRecord
 10
0.0
 20
0.0
 30
0.0
 70
   128
 71
    -2
 72
    -8
 73
    -9
 74
    -9
  0
VERTEX
  5
135
330
F
100
AcDbEntity
  8
0
 62
     0
100
AcDbFaceRecord
 10
0.0
 20
0.0
 30
0.0
 70
   128
 71
   -32
 72
   -38
 73
   -39
 74
   -39
  0
VERTEX
  5
136
330
F
100
AcDbEntity
  8
0
 62
     0
100
AcDbFaceRecord
 10
0.0
 20
0.0
 30
0.0
 70
   128
 71
    -2
 72
    -9
 73
   -10
 74
   -10
  0
VERTEX
  5
137
330
F
100
AcDbEntity
  8
0
 62
     0
100
AcDbFaceRecord
 10
0.0
 20
0.0
 30
0.0
 70
   128
 71
   -32
 72
   -39
 73
   -40
 74
   -40
  0
VERTEX
  5
138
330
F
100
AcDbEntity
  8
0
 62
     0
100
AcDbFaceRecord
 10
0.0
 20
0.0
 30
0.0
 70
   128
 71
    -2
 72
   -10
 73
   -11
 74
   -11
  0
VERTEX
  5
139
330
F
100
AcDbEntity
  8
0
 62
     0
100
AcDbFaceRecord
 10
0.0
 20
0.0
 30
0.0
 70
   128
 71
   -32
 72
   -40
 73
   -41
 74
   -41
  0
VERTEX
  5
13A
330
F
100
AcDbEntity
  8
0
 62
     0
100
AcDbFaceRecord
 10
0.0
 20
0.0
 30
0.0
 70
   128
 71
    -2
 72
   -11
 73
   -12
 74
   -12
  0
VERTEX
  5
13B
330
F
100
AcDbEntity
  8
0
 62
     0
100
AcDbFaceRecord
 10
0.0
 20
0.0
 30
0.0
 70
   128
 71
   -32
 72
   -41
 73
   -42
 74
   -42
  0
VERTEX
  5
13C
330
F
100
AcDbEntity
  8
0
 62
     0
100
AcDbFaceRecord
 10
0.0
 20
0.0
 30
0.0
 70
   128
 71
    -2
 72
   -12
 73
   -13
 74
   -13
  0
VERTEX
  5
13D
330
F
100
AcDbEntity
  8
0
 62
     0
100
AcDbFaceRecord
 10
0.0
 20
0.0
 30
0.0
 70
   128
 71
   -32
 72
   -42
 73
   -43
 74
   -43
  0
VERTEX
  5
13E
330
F
100
AcDbEntity
  8
0
 62
     0
100
AcDbFaceRecord
 10
0.0
 20
0.0
 30
0.0
 70
   128
 71
    -2
 72
   -13
 73
   -14
 74
   -14
  0
VERTEX
  5
13F
330
F
100
AcDbEntity
  8
0
 62
     0
100
AcDbFaceRecord
 10
0.0
 20
0.0
 30
0.0
 70
   128
 71
   -32
 72
   -43
 73
   -44
 74
   -44
  0
VERTEX
  5
140
330
F
100
AcDbEntity
  8
0
 62
     0
100
AcDbFaceRecord
 10
0.0
 20
0.0
 30
0.0
 70
   128
 71
    -2
 72
   -15
 73
   -16
 74
   -16
  0
VERTEX
  5
141
330
F
100
AcDbEntity
  8
0
 62
     0
100
AcDbFaceRecord
 10
0.0
 20
0.0
 30
0.0
 70
   128
 71
   -32
 72
   -45
 73
   -46
 74
   -46
  0
VERTEX
  5
142
330
F
100
AcDbEntity
  8
0
 62
     0
100
AcDbFaceRecord
 10
0.0
 20
0.0
 30
0.0
 70
   128
 71
   -16
 72
   -17
 73
   -18
 74
   -18
  0
VERTEX
  5
143
330
F
100
AcDbEntity
  8
0
 62
     0
100
AcDbFaceRecord
 10
0.0
 20
0.0
 30
0.0
 70
   128
 71
   -46
 72
   -47
 73
   -48
 74
   -48
  0
VERTEX
  5
144
330
F
100
AcDbEntity
  8
0
 62
     0
100
AcDbFaceRecord
 10
0.0
 20
0.0
 30
0.0
 70
   128
 71
   -19
 72
   -20
 73
   -21
 74
   -21
  0
VERTEX
  5
145
330
F
100
AcDbEntity
  8
0
 62
     0
100
AcDbFaceRecord
 10
0.0
 20
0.0
 30
0.0
 70
   128
 71
   -49
 72
   -50
 73
   -51
 74
   -51
  0
VERTEX
  5
146
330
F
100
AcDbEntity
  8
0
 62
     0
100
AcDbFaceRecord
 10
0.0
 20
0.0
 30
0.0
 70
   128
 71
   -19
 72
   -21
 73
   -22
 74
   -22
  0
VERTEX
  5
147
330
F
100
AcDbEntity
  8
0
 62
     0
100
AcDbFaceRecord
 10
0.0
 20
0.0
 30
0.0
 70
   128
 71
   -49
 72
   -51
 73
   -52
 74
   -52
  0
VERTEX
  5
148
330
F
100
AcDbEntity
  8
0
 62
     0
100
AcDbFaceRecord
 10
0.0
 20
0.0
 30
0.0
 70
   128
 71
   -19
 72
   -23
 73
   -24
 74
   -24
  0
VERTEX
  5
149
330
F
100
AcDbEntity
  8
0
 62
     0
100
AcDbFaceRecord
 10
0.0
 20
0.0
 30
0.0
 70
   128
 71
   -49
 72
   -53
 73
   -54
 74
   -54
  0
VERTEX
  5
14A
330
F
100
AcDbEntity
  8
0
 62
     0
100
AcDbFaceRecord
 10
0.0
 20
0.0
 30
0.0
 70
   128
 71
   -25
 72
   -26
 73
   -27
 74
   -27
  0
VERTEX
  5
14B
330
F
100
AcDbEntity
  8
0
 62
     0
100
AcDbFaceRecord
 10
0.0
 20
0.0
 30
0.0
 70
   128
 71
   -55
 72
   -56
 73
   -57
 74
   -57
  0
VERTEX
  5
14C
330
F
100
AcDbEntity
  8
0
 62
     0
100
AcDbFaceRecord
 10
0.0
 20
0.0
 30
0.0
 70
   128
 71
   -25
 72
   -27
 73
   -28
 74
   -28
  0
VERTEX
  5
14D
330
F
100
AcDbEntity
  8
0
 62
     0
100
AcDbFaceRecord
 10
0.0
 20
0.0
 30
0.0
 70
   128
 71
   -55
 72
   -57
 73
   -58
 74
   -58
  0
VERTEX
  5
14E
330
F
100
AcDbEntity
  8
0
 62
     0
100
AcDbFaceRecord
 10
0.0
 20
0.0
 30
0.0
 70
   128
 71
   -25
 72
   -28
 73
   -29
 74
   -29
  0
VERTEX
  5
14F
330
F
100
AcDbEntity
  8
0
 62
     0
100
AcDbFaceRecord
 10
0.0
 20
0.0
 30
0.0
 70
   128
 71
   -55
 72
   -58
 73
   -59
 74
   -59
  0
VERTEX
  5
150
330
F
100
AcDbEntity
  8
0
 62
     0
100
AcDbFaceRecord
 10
0.0
 20
0.0
 30
0.0
 70
   128
 71
   -25
 72
   -29
 73
   -30
 74
   -30
  0
VERTEX
  5
151
330
F
100
AcDbEntity
  8
0
 62
     0
100
AcDbFaceRecord
 10
0.0
 20
0.0
 30
0.0
 70
   128
 71
   -55
 72
   -59
 73
   -60
 74
   -60
  0
VERTEX
  5
152
330
F
100
AcDbEntity
  8
0
 62
     0
100
AcDbFaceRecord
 10
0.0
 20
0.0
 30
0.0
 70
   128
 71
   -25
 72
   -30
 73
    -2
 74
    -2
  0
VERTEX
  5
153
330
F
100
AcDbEntity
  8
0
 62
     0
100
AcDbFaceRecord
 10
0.0
 20
0.0
 30
0.0
 70
   128
 71
   -55
 72
   -60
 73
   -32
 74
   -32
  0
VERTEX
  5
154
330
F
100
AcDbEntity
  8
0
 62
     0
100
AcDbFaceRecord
 10
0.0
 20
0.0
 30
0.0
 70
   128
 71
   -25
 72
    -2
 73
   -16
 74
   -16
  0
VERTEX
  5
155
330
F
100
AcDbEntity
  8
0
 62
     0
100
AcDbFaceRecord
 10
0.0
 20
0.0
 30
0.0
 70
   128
 71
   -55
 72
   -32
 73
   -46
 74
   -46
  0
VERTEX
  5
156
330
F
100
AcDbEntity
  8
0
 62
     0
100
AcDbFaceRecord
 10
0.0
 20
0.0
 30
0.0
 70
   128
 71
   -25
 72
   -16
 73
   -18
 74
   -18
  0
VERTEX
  5
157
330
F
100
AcDbEntity
  8
0
 62
     0
100
AcDbFaceRecord
 10
0.0
 20
0.0
 30
0.0
 70
   128
 71
   -55
 72
   -46
 73
   -48
 74
   -48
  0
VERTEX
  5
158
330
F
100
AcDbEntity
  8
0
 62
     0
100
AcDbFaceRecord
 10
0.0
 20
0.0
 30
0.0
 70
   128
 71
   -18
 72
   -19
 73
   -24
 74
   -24
  0
VERTEX
  5
159
330
F
100
AcDbEntity
  8
0
 62
     0
100
AcDbFaceRecord
 10
0.0
 20
0.0
 30
0.0
 70
   128
 71
   -48
 72
   -49
 73
   -54
 74
   -54
  0
VERTEX
  5
15A
330
F
100
AcDbEntity
  8
0
 62
     0
100
AcDbFaceRecord
 10
0.0
 20
0.0
 30
0.0
 70
   128
 71
   -24
 72
   -25
 73
   -18
 74
   -18
  0
VERTEX
  5
15B
330
F
100
AcDbEntity
  8
0
 62
     0
100
AcDbFaceRecord
 10
0.0
 20
0.0
 30
0.0
 70
   128
 71
   -54
 72
   -55
 73
   -48
 74
   -48
  0
VERTEX
  5
15C
330
F
100
AcDbEntity
  8
0
 62
     0
100
AcDbFaceRecord
 10
0.0
 20
0.0
 30
0.0
 70
   128
 71
     1
 72
     2
 73
    32
 74
    31
  0
VERTEX
  5
15D
330
F
100
AcDbEntity
  8
0
 62
     0
100
AcDbFaceRecord
 10
0.0
 20
0.0
 30
0.0
 70
   128
 71
     2
 72
     3
 73
    33
 74
    32
  0
VERTEX
  5
15E
330
F
100
AcDbEntity
  8
0
 62
     0
100
AcDbFaceRecord
 10
0.0
 20
0.0
 30
0.0
 70
   128
 71
     3
 72
     4
 73
    34
 74
    33
  0
VERTEX
  5
15F
330
F
100
AcDbEntity
  8
0
 62
     0
100
AcDbFaceRecord
 10
0.0
 20
0.0
 30
0.0
 70
   128
 71
     4
 72
     5
 73
    35
 74
    34
  0
VERTEX
  5
160
330
F
100
AcDbEntity
  8
0
 62
     0
100
AcDbFaceRecord
 10
0.0
 20
0.0
 30
0.0
 70
   128
 71
     5
 72
     6
 73
    36
 74
    35
  0
VERTEX
  5
161
330
F
100
AcDbEntity
  8
0
 62
     0
100
AcDbFaceRecord
 10
0.0
 20
0.0
 30
0.0
 70
   128
 71
     6
 72
     7
 73
    37
 74
    36
  0
VERTEX
  5
162
330
F
100
AcDbEntity
  8
0
 62
     0
100
AcDbFaceRecord
 10
0.0
 20
0.0
 30
0.0
 70
   128
 71
     7
 72
     8
 73
    38
 74
    37
  0
VERTEX
  5
163
330
F
100
AcDbEntity
  8
0
 62
     0
100
AcDbFaceRecord
 10
0.0
 20
0.0
 30
0.0
 70
   128
 71
     8
 72
     9
 73
    39
 74
    38
  0
VERTEX
  5
164
330
F
100
AcDbEntity
  8
0
 62
     0
100
AcDbFaceRecord
 10
0.0
 20
0.0
 30
0.0
 70
   128
 71
     9
 72
    10
 73
    40
 74
    39
  0
VERTEX
  5
165
330
F
100
AcDbEntity
  8
0
 62
     0
100
AcDbFaceRecord
 10
0.0
 20
0.0
 30
0.0
 70
   128
 71
    10
 72
    11
 73
    41
 74
    40
  0
VERTEX
  5
166
330
F
100
AcDbEntity
  8
0
 62
     0
100
AcDbFaceRecord
 10
0.0
 20
0.0
 30
0.0
 70
   128
 71
    11
 72
    12
 73
    42
 74
    41
  0
VERTEX
  5
167
330
F
100
AcDbEntity
  8
0
 62
     0
100
AcDbFaceRecord
 10
0.0
 20
0.0
 30
0.0
 70
   128
 71
    12
 72
    13
 73
    43
 74
    42
  0
VERTEX
  5
168
330
F
100
AcDbEntity
  8
0
 62
     0
100
AcDbFaceRecord
 10
0.0
 20
0.0
 30
0.0
 70
   128
 71
    13
 72
    14
 73
    44
 74
    43
  0
VERTEX
  5
169
330
F
100
AcDbEntity
  8
0
 62
     0
100
AcDbFaceRecord
 10
0.0
 20
0.0
 30
0.0
 70
   128
 71
    14
 72
    15
 73
    45
 74
    44
  0
VERTEX
  5
16A
330
F
100
AcDbEntity
  8
0
 62
     0
100
AcDbFaceRecord
 10
0.0
 20
0.0
 30
0.0
 70
   128
 71
    15
 72
    16
 73
    46
 74
    45
  0
VERTEX
  5
16B
330
F
100
AcDbEntity
  8
0
 62
     0
100
AcDbFaceRecord
 10
0.0
 20
0.0
 30
0.0
 70
   128
 71
    16
 72
    17
 73
    47
 74
    46
  0
VERTEX
  5
16C
330
F
100
AcDbEntity
  8
0
 62
     0
100
AcDbFaceRecord
 10
0.0
 20
0.0
 30
0.0
 70
   128
 71
    17
 72
    18
 73
    48
 74
    47
  0
VERTEX
  5
16D
330
F
100
AcDbEntity
  8
0
 62
     0
100
AcDbFaceRecord
 10
0.0
 20
0.0
 30
0.0
 70
   128
 71
    18
 72
    19
 73
    49
 74
    48
  0
VERTEX
  5
16E
330
F
100
AcDbEntity
  8
0
 62
     0
100
AcDbFaceRecord
 10
0.0
 20
0.0
 30
0.0
 70
   128
 71
    19
 72
    20
 73
    50
 74
    49
  0
VERTEX
  5
16F
330
F
100
AcDbEntity
  8
0
 62
     0
100
AcDbFaceRecord
 10
0.0
 20
0.0
 30
0.0
 70
   128
 71
    20
 72
    21
 73
    51
 74
    50
  0
VERTEX
  5
170
330
F
100
AcDbEntity
  8
0
 62
     0
100
AcDbFaceRecord
 10
0.0
 20
0.0
 30
0.0
 70
   128
 71
    21
 72
    22
 73
    52
 74
    51
  0
VERTEX
  5
171
330
F
100
AcDbEntity
  8
0
 62
     0
100
AcDbFaceRecord
 10
0.0
 20
0.0
 30
0.0
 70
   128
 71
    22
 72
    23
 73
    53
 74
    52
  0
VERTEX
  5
172
330
F
100
AcDbEntity
  8
0
 62
     0
100
AcDbFaceRecord
 10
0.0
 20
0.0
 30
0.0
 70
   128
 71
    23
 72
    24
 73
    54
 74
    53
  0
VERTEX
  5
173
330
F
100
AcDbEntity
  8
0
 62
     0
100
AcDbFaceRecord
 10
0.0
 20
0.0
 30
0.0
 70
   128
 71
    24
 72
    25
 73
    55
 74
    54
  0
VERTEX
  5
174
330
F
100
AcDbEntity
  8
0
 62
     0
100
AcDbFaceRecord
 10
0.0
 20
0.0
 30
0.0
 70
   128
 71
    25
 72
    26
 73
    56
 74
    55
  0
VERTEX
  5
175
330
F
100
AcDbEntity
  8
0
 62
     0
100
AcDbFaceRecord
 10
0.0
 20
0.0
 30
0.0
 70
   128
 71
    26
 72
    27
 73
    57
 74
    56
  0
VERTEX
  5
176
330
F
100
AcDbEntity
  8
0
 62
     0
100
AcDbFaceRecord
 10
0.0
 20
0.0
 30
0.0
 70
   128
 71
    27
 72
    28
 73
    58
 74
    57
  0
VERTEX
  5
177
330
F
100
AcDbEntity
  8
0
 62
     0
100
AcDbFaceRecord
 10
0.0
 20
0.0
 30
0.0
 70
   128
 71
    28
 72
    29
 73
    59
 74
    58
  0
VERTEX
  5
178
330
F
100
AcDbEntity
  8
0
 62
     0
100
AcDbFaceRecord
 10
0.0
 20
0.0
 30
0.0
 70
   128
 71
    29
 72
    30
 73
    60
 74
    59
  0
SEQEND
  5
F1
330
F
100
AcDbEntity
  8
HOLME
  0
POLYLINE
  5
11
330
5D
100
AcDbEntity
  8
HOLME
100
AcDbPolyFaceMesh
 66
     1
 10
0.0
 20
0.0
 30
0.0
 70
    64
 71
    56
 72
    59
  0
VERTEX
  5
17A
330
11
100
AcDbEntity
  8
0
100
AcDbVertex
100
AcDbPolyFaceMeshVertex
 10
3345.000000000041
 20
1945.0
 30
1565.597348480246
 70
   192
  0
VERTEX
  5
17B
330
11
100
AcDbEntity
  8
0
100
AcDbVertex
100
AcDbPolyFaceMeshVertex
 10
3345.000000000044
 20
1945.0
 30
1663.876186378677
 70
   192
  0
VERTEX
  5
17C
330
11
100
AcDbEntity
  8
0
100
AcDbVertex
100
AcDbPolyFaceMeshVertex
 10
3345.000000000044
 20
1960.0
 30
1663.876186378677
 70
   192
  0
VERTEX
  5
17D
330
11
100
AcDbEntity
  8
0
100
AcDbVertex
100
AcDbPolyFaceMeshVertex
 10
3345.000000000046
 20
1960.0
 30
1762.155024277109
 70
   192
  0
VERTEX
  5
17E
330
11
100
AcDbEntity
  8
0
100
AcDbVertex
100
AcDbPolyFaceMeshVertex
 10
3345.000000000046
 20
1945.0
 30
1762.155024277109
 70
   192
  0
VERTEX
  5
17F
330
11
100
AcDbEntity
  8
0
100
AcDbVertex
100
AcDbPolyFaceMeshVertex
 10
3345.000000000049
 20
1945.0
 30
1860.43386217554
 70
   192
  0
VERTEX
  5
180
330
11
100
AcDbEntity
  8
0
100
AcDbVertex
100
AcDbPolyFaceMeshVertex
 10
3345.000000000049
 20
1945.0
 30
1860.43386217554
 70
   192
  0
VERTEX
  5
181
330
11
100
AcDbEntity
  8
0
100
AcDbVertex
100
AcDbPolyFaceMeshVertex
 10
3345.00000000005
 20
1821.430481752302
 30
1878.930468150554
 70
   192
  0
VERTEX
  5
182
330
11
100
AcDbEntity
  8
0
100
AcDbVertex
100
AcDbPolyFaceMeshVertex
 10
3345.000000000054
 20
1173.010364389242
 30
2031.708245928332
 70
   192
  0
VERTEX
  5
183
330
11
100
AcDbEntity
  8
0
100
AcDbVertex
100
AcDbPolyFaceMeshVertex
 10
3345.000000000058
 20
717.7844986570763
 30
2184.486023706109
 70
   192
  0
VERTEX
  5
184
330
11
100
AcDbEntity
  8
0
100
AcDbVertex
100
AcDbPolyFaceMeshVertex
 10
3345.000000000062
 20
378.2314682263259
 30
2337.263801483887
 70
   192
  0
VERTEX
  5
185
330
11
100
AcDbEntity
  8
0
100
AcDbVertex
100
AcDbPolyFaceMeshVertex
 10
3345.000000000066
 20
38.67843779545819
 30
2490.041579261665
 70
   192
  0
VERTEX
  5
186
330
11
100
AcDbEntity
  8
0
100
AcDbVertex
100
AcDbPolyFaceMeshVertex
 10
3345.00000000007
 20
-300.8745926354741
 30
2642.819357039443
 70
   192
  0
VERTEX
  5
187
330
11
100
AcDbEntity
  8
0
100
AcDbVertex
100
AcDbPolyFaceMeshVertex
 10
3345.000000000074
 20
-640.4276230664464
 30
2795.597134817221
 70
   192
  0
VERTEX
  5
188
330
11
100
AcDbEntity
  8
0
100
AcDbVertex
100
AcDbPolyFaceMeshVertex
 10
3345.000000000074
 20
-650.2131182944568
 30
2800.0
 70
   192
  0
VERTEX
  5
189
330
11
100
AcDbEntity
  8
0
100
AcDbVertex
100
AcDbPolyFaceMeshVertex
 10
3345.000000000074
 20
-650.2131182944568
 30
2800.0
 70
   192
  0
VERTEX
  5
18A
330
11
100
AcDbEntity
  8
0
100
AcDbVertex
100
AcDbPolyFaceMeshVertex
 10
3345.000000000074
 20
-1000.0
 30
2800.0
 70
   192
  0
VERTEX
  5
18B
330
11
100
AcDbEntity
  8
0
100
AcDbVertex
100
AcDbPolyFaceMeshVertex
 10
3345.000000000074
 20
-1000.0
 30
2800.0
 70
   192
  0
VERTEX
  5
18C
330
11
100
AcDbEntity
  8
0
100
AcDbVertex
100
AcDbPolyFaceMeshVertex
 10
3345.00000000007
 20
-1000.0
 30
2641.450447713939
 70
   192
  0
VERTEX
  5
18D
330
11
100
AcDbEntity
  8
0
100
AcDbVertex
100
AcDbPolyFaceMeshVertex
 10
3345.00000000007
 20
-1000.0
 30
2641.450447713939
 70
   192
  0
VERTEX
  5
18E
330
11
100
AcDbEntity
  8
0
100
AcDbVertex
100
AcDbPolyFaceMeshVertex
 10
3345.000000000066
 20
-711.4593813256452
 30
2511.625087405002
 70
   192
  0
VERTEX
  5
18F
330
11
100
AcDbEntity
  8
0
100
AcDbVertex
100
AcDbPolyFaceMeshVertex
 10
3345.000000000062
 20
-371.9063508946701
 30
2358.847309627224
 70
   192
  0
VERTEX
  5
190
330
11
100
AcDbEntity
  8
0
100
AcDbVertex
100
AcDbPolyFaceMeshVertex
 10
3345.000000000058
 20
-32.35332046373333
 30
2206.069531849446
 70
   192
  0
VERTEX
  5
191
330
11
100
AcDbEntity
  8
0
100
AcDbVertex
100
AcDbPolyFaceMeshVertex
 10
3345.000000000055
 20
307.1997099671416
 30
2053.291754071668
 70
   192
  0
VERTEX
  5
192
330
11
100
AcDbEntity
  8
0
100
AcDbVertex
100
AcDbPolyFaceMeshVertex
 10
3345.000000000051
 20
646.7527403979047
 30
1900.51397629389
 70
   192
  0
VERTEX
  5
193
330
11
100
AcDbEntity
  8
0
100
AcDbVertex
100
AcDbPolyFaceMeshVertex
 10
3345.000000000046
 20
1100.861625225904
 30
1747.736198516113
 70
   192
  0
VERTEX
  5
194
330
11
100
AcDbEntity
  8
0
100
AcDbVertex
100
AcDbPolyFaceMeshVertex
 10
3345.000000000042
 20
1741.159688221833
 30
1594.958420738335
 70
   192
  0
VERTEX
  5
195
330
11
100
AcDbEntity
  8
0
100
AcDbVertex
100
AcDbPolyFaceMeshVertex
 10
3345.000000000041
 20
1945.0
 30
1565.597348480246
 70
   192
  0
VERTEX
  5
196
330
11
100
AcDbEntity
  8
0
100
AcDbVertex
100
AcDbPolyFaceMeshVertex
 10
3360.000000000041
 20
1945.0
 30
1565.597348480245
 70
   192
  0
VERTEX
  5
197
330
11
100
AcDbEntity
  8
0
100
AcDbVertex
100
AcDbPolyFaceMeshVertex
 10
3360.000000000044
 20
1945.0
 30
1663.876186378677
 70
   192
  0
VERTEX
  5
198
330
11
100
AcDbEntity
  8
0
100
AcDbVertex
100
AcDbPolyFaceMeshVertex
 10
3360.000000000044
 20
1960.0
 30
1663.876186378677
 70
   192
  0
VERTEX
  5
199
330
11
100
AcDbEntity
  8
0
100
AcDbVertex
100
AcDbPolyFaceMeshVertex
 10
3360.000000000046
 20
1960.0
 30
1762.155024277108
 70
   192
  0
VERTEX
  5
19A
330
11
100
AcDbEntity
  8
0
100
AcDbVertex
100
AcDbPolyFaceMeshVertex
 10
3360.000000000046
 20
1945.0
 30
1762.155024277108
 70
   192
  0
VERTEX
  5
19B
330
11
100
AcDbEntity
  8
0
100
AcDbVertex
100
AcDbPolyFaceMeshVertex
 10
3360.000000000049
 20
1945.0
 30
1860.43386217554
 70
   192
  0
VERTEX
  5
19C
330
11
100
AcDbEntity
  8
0
100
AcDbVertex
100
AcDbPolyFaceMeshVertex
 10
3360.000000000049
 20
1945.0
 30
1860.43386217554
 70
   192
  0
VERTEX
  5
19D
330
11
100
AcDbEntity
  8
0
100
AcDbVertex
100
AcDbPolyFaceMeshVertex
 10
3360.00000000005
 20
1821.430481752302
 30
1878.930468150554
 70
   192
  0
VERTEX
  5
19E
330
11
100
AcDbEntity
  8
0
100
AcDbVertex
100
AcDbPolyFaceMeshVertex
 10
3360.000000000054
 20
1173.010364389242
 30
2031.708245928331
 70
   192
  0
VERTEX
  5
19F
330
11
100
AcDbEntity
  8
0
100
AcDbVertex
100
AcDbPolyFaceMeshVertex
 10
3360.000000000058
 20
717.7844986570763
 30
2184.486023706109
 70
   192
  0
VERTEX
  5
1A0
330
11
100
AcDbEntity
  8
0
100
AcDbVertex
100
AcDbPolyFaceMeshVertex
 10
3360.000000000062
 20
378.2314682263259
 30
2337.263801483887
 70
   192
  0
VERTEX
  5
1A1
330
11
100
AcDbEntity
  8
0
100
AcDbVertex
100
AcDbPolyFaceMeshVertex
 10
3360.000000000066
 20
38.67843779545819
 30
2490.041579261665
 70
   192
  0
VERTEX
  5
1A2
330
11
100
AcDbEntity
  8
0
100
AcDbVertex
100
AcDbPolyFaceMeshVertex
 10
3360.00000000007
 20
-300.8745926354741
 30
2642.819357039442
 70
   192
  0
VERTEX
  5
1A3
330
11
100
AcDbEntity
  8
0
100
AcDbVertex
100
AcDbPolyFaceMeshVertex
 10
3360.000000000074
 20
-640.4276230664464
 30
2795.59713481722
 70
   192
  0
VERTEX
  5
1A4
330
11
100
AcDbEntity
  8
0
100
AcDbVertex
100
AcDbPolyFaceMeshVertex
 10
3360.000000000074
 20
-650.2131182944568
 30
2800.0
 70
   192
  0
VERTEX
  5
1A5
330
11
100
AcDbEntity
  8
0
100
AcDbVertex
100
AcDbPolyFaceMeshVertex
 10
3360.000000000074
 20
-650.2131182944568
 30
2800.0
 70
   192
  0
VERTEX
  5
1A6
330
11
100
AcDbEntity
  8
0
100
AcDbVertex
100
AcDbPolyFaceMeshVertex
 10
3360.000000000074
 20
-1000.0
 30
2800.0
 70
   192
  0
VERTEX
  5
1A7
330
11
100
AcDbEntity
  8
0
100
AcDbVertex
100
AcDbPolyFaceMeshVertex
 10
3360.000000000074
 20
-1000.0
 30
2800.0
 70
   192
  0
VERTEX
  5
1A8
330
11
100
AcDbEntity
  8
0
100
AcDbVertex
100
AcDbPolyFaceMeshVertex
 10
3360.00000000007
 20
-1000.0
 30
2641.450447713939
 70
   192
  0
VERTEX
  5
1A9
330
11
100
AcDbEntity
  8
0
100
AcDbVertex
100
AcDbPolyFaceMeshVertex
 10
3360.00000000007
 20
-1000.0
 30
2641.450447713939
 70
   192
  0
VERTEX
  5
1AA
330
11
100
AcDbEntity
  8
0
100
AcDbVertex
100
AcDbPolyFaceMeshVertex
 10
3360.000000000066
 20
-711.4593813256452
 30
2511.625087405001
 70
   192
  0
VERTEX
  5
1AB
330
11
100
AcDbEntity
  8
0
100
AcDbVertex
100
AcDbPolyFaceMeshVertex
 10
3360.000000000062
 20
-371.9063508946701
 30
2358.847309627223
 70
   192
  0
VERTEX
  5
1AC
330
11
100
AcDbEntity
  8
0
100
AcDbVertex
100
AcDbPolyFaceMeshVertex
 10
3360.000000000058
 20
-32.35332046373333
 30
2206.069531849445
 70
   192
  0
VERTEX
  5
1AD
330
11
100
AcDbEntity
  8
0
100
AcDbVertex
100
AcDbPolyFaceMeshVertex
 10
3360.000000000055
 20
307.1997099671416
 30
2053.291754071668
 70
   192
  0
VERTEX
  5
1AE
330
11
100
AcDbEntity
  8
0
100
AcDbVertex
100
AcDbPolyFaceMeshVertex
 10
3360.000000000051
 20
646.7527403979047
 30
1900.51397629389
 70
   192
  0
VERTEX
  5
1AF
330
11
100
AcDbEntity
  8
0
100
AcDbVertex
100
AcDbPolyFaceMeshVertex
 10
3360.000000000046
 20
1100.861625225904
 30
1747.736198516112
 70
   192
  0
VERTEX
  5
1B0
330
11
100
AcDbEntity
  8
0
100
AcDbVertex
100
AcDbPolyFaceMeshVertex
 10
3360.000000000042
 20
1741.159688221833
 30
1594.958420738334
 70
   192
  0
VERTEX
  5
1B1
330
11
100
AcDbEntity
  8
0
100
AcDbVertex
100
AcDbPolyFaceMeshVertex
 10
3360.000000000041
 20
1945.0
 30
1565.597348480245
 70
   192
  0
VERTEX
  5
1B2
330
11
100
AcDbEntity
  8
0
 62
     0
100
AcDbFaceRecord
 10
0.0
 20
0.0
 30
0.0
 70
   128
 71
    -2
 72
    -3
 73
    -4
 74
    -4
  0
VERTEX
  5
1B3
330
11
100
AcDbEntity
  8
0
 62
     0
100
AcDbFaceRecord
 10
0.0
 20
0.0
 30
0.0
 70
   128
 71
   -30
 72
   -31
 73
   -32
 74
   -32
  0
VERTEX
  5
1B4
330
11
100
AcDbEntity
  8
0
 62
     0
100
AcDbFaceRecord
 10
0.0
 20
0.0
 30
0.0
 70
   128
 71
    -2
 72
    -4
 73
    -5
 74
    -5
  0
VERTEX
  5
1B5
330
11
100
AcDbEntity
  8
0
 62
     0
100
AcDbFaceRecord
 10
0.0
 20
0.0
 30
0.0
 70
   128
 71
   -30
 72
   -32
 73
   -33
 74
   -33
  0
VERTEX
  5
1B6
330
11
100
AcDbEntity
  8
0
 62
     0
100
AcDbFaceRecord
 10
0.0
 20
0.0
 30
0.0
 70
   128
 71
    -2
 72
    -7
 73
    -8
 74
    -8
  0
VERTEX
  5
1B7
330
11
100
AcDbEntity
  8
0
 62
     0
100
AcDbFaceRecord
 10
0.0
 20
0.0
 30
0.0
 70
   128
 71
   -30
 72
   -35
 73
   -36
 74
   -36
  0
VERTEX
  5
1B8
330
11
100
AcDbEntity
  8
0
 62
     0
100
AcDbFaceRecord
 10
0.0
 20
0.0
 30
0.0
 70
   128
 71
    -2
 72
    -8
 73
    -9
 74
    -9
  0
VERTEX
  5
1B9
330
11
100
AcDbEntity
  8
0
 62
     0
100
AcDbFaceRecord
 10
0.0
 20
0.0
 30
0.0
 70
   128
 71
   -30
 72
   -36
 73
   -37
 74
   -37
  0
VERTEX
  5
1BA
330
11
100
AcDbEntity
  8
0
 62
     0
100
AcDbFaceRecord
 10
0.0
 20
0.0
 30
0.0
 70
   128
 71
    -2
 72
    -9
 73
   -10
 74
   -10
  0
VERTEX
  5
1BB
330
11
100
AcDbEntity
  8
0
 62
     0
100
AcDbFaceRecord
 10
0.0
 20
0.0
 30
0.0
 70
   128
 71
   -30
 72
   -37
 73
   -38
 74
   -38
  0
VERTEX
  5
1BC
330
11
100
AcDbEntity
  8
0
 62
     0
100
AcDbFaceRecord
 10
0.0
 20
0.0
 30
0.0
 70
   128
 71
   -10
 72
   -16
 73
   -17
 74
   -17
  0
VERTEX
  5
1BD
330
11
100
AcDbEntity
  8
0
 62
     0
100
AcDbFaceRecord
 10
0.0
 20
0.0
 30
0.0
 70
   128
 71
   -38
 72
   -44
 73
   -45
 74
   -45
  0
VERTEX
  5
1BE
330
11
100
AcDbEntity
  8
0
 62
     0
100
AcDbFaceRecord
 10
0.0
 20
0.0
 30
0.0
 70
   128
 71
   -10
 72
   -18
 73
   -19
 74
   -19
  0
VERTEX
  5
1BF
330
11
100
AcDbEntity
  8
0
 62
     0
100
AcDbFaceRecord
 10
0.0
 20
0.0
 30
0.0
 70
   128
 71
   -38
 72
   -46
 73
   -47
 74
   -47
  0
VERTEX
  5
1C0
330
11
100
AcDbEntity
  8
0
 62
     0
100
AcDbFaceRecord
 10
0.0
 20
0.0
 30
0.0
 70
   128
 71
   -10
 72
   -20
 73
   -21
 74
   -21
  0
VERTEX
  5
1C1
330
11
100
AcDbEntity
  8
0
 62
     0
100
AcDbFaceRecord
 10
0.0
 20
0.0
 30
0.0
 70
   128
 71
   -38
 72
   -48
 73
   -49
 74
   -49
  0
VERTEX
  5
1C2
330
11
100
AcDbEntity
  8
0
 62
     0
100
AcDbFaceRecord
 10
0.0
 20
0.0
 30
0.0
 70
   128
 71
   -10
 72
   -21
 73
   -22
 74
   -22
  0
VERTEX
  5
1C3
330
11
100
AcDbEntity
  8
0
 62
     0
100
AcDbFaceRecord
 10
0.0
 20
0.0
 30
0.0
 70
   128
 71
   -38
 72
   -49
 73
   -50
 74
   -50
  0
VERTEX
  5
1C4
330
11
100
AcDbEntity
  8
0
 62
     0
100
AcDbFaceRecord
 10
0.0
 20
0.0
 30
0.0
 70
   128
 71
   -10
 72
   -22
 73
   -23
 74
   -23
  0
VERTEX
  5
1C5
330
11
100
AcDbEntity
  8
0
 62
     0
100
AcDbFaceRecord
 10
0.0
 20
0.0
 30
0.0
 70
   128
 71
   -38
 72
   -50
 73
   -51
 74
   -51
  0
VERTEX
  5
1C6
330
11
100
AcDbEntity
  8
0
 62
     0
100
AcDbFaceRecord
 10
0.0
 20
0.0
 30
0.0
 70
   128
 71
   -10
 72
   -23
 73
   -24
 74
   -24
  0
VERTEX
  5
1C7
330
11
100
AcDbEntity
  8
0
 62
     0
100
AcDbFaceRecord
 10
0.0
 20
0.0
 30
0.0
 70
   128
 71
   -38
 72
   -51
 73
   -52
 74
   -52
  0
VERTEX
  5
1C8
330
11
100
AcDbEntity
  8
0
 62
     0
100
AcDbFaceRecord
 10
0.0
 20
0.0
 30
0.0
 70
   128
 71
   -10
 72
   -24
 73
   -25
 74
   -25
  0
VERTEX
  5
1C9
330
11
100
AcDbEntity
  8
0
 62
     0
100
AcDbFaceRecord
 10
0.0
 20
0.0
 30
0.0
 70
   128
 71
   -38
 72
   -52
 73
   -53
 74
   -53
  0
VERTEX
  5
1CA
330
11
100
AcDbEntity
  8
0
 62
     0
100
AcDbFaceRecord
 10
0.0
 20
0.0
 30
0.0
 70
   128
 71
   -10
 72
   -25
 73
   -26
 74
   -26
  0
VERTEX
  5
1CB
330
11
100
AcDbEntity
  8
0
 62
     0
100
AcDbFaceRecord
 10
0.0
 20
0.0
 30
0.0
 70
   128
 71
   -38
 72
   -53
 73
   -54
 74
   -54
  0
VERTEX
  5
1CC
330
11
100
AcDbEntity
  8
0
 62
     0
100
AcDbFaceRecord
 10
0.0
 20
0.0
 30
0.0
 70
   128
 71
   -10
 72
   -26
 73
   -27
 74
   -27
  0
VERTEX
  5
1CD
330
11
100
AcDbEntity
  8
0
 62
     0
100
AcDbFaceRecord
 10
0.0
 20
0.0
 30
0.0
 70
   128
 71
   -38
 72
   -54
 73
   -55
 74
   -55
  0
VERTEX
  5
1CE
330
11
100
AcDbEntity
  8
0
 62
     0
100
AcDbFaceRecord
 10
0.0
 20
0.0
 30
0.0
 70
   128
 71
   -10
 72
   -27
 73
   -28
 74
   -28
  0
VERTEX
  5
1CF
330
11
100
AcDbEntity
  8
0
 62
     0
100
AcDbFaceRecord
 10
0.0
 20
0.0
 30
0.0
 70
   128
 71
   -38
 72
   -55
 73
   -56
 74
   -56
  0
VERTEX
  5
1D0
330
11
100
AcDbEntity
  8
0
 62
     0
100
AcDbFaceRecord
 10
0.0
 20
0.0
 30
0.0
 70
   128
 71
   -28
 72
    -2
 73
   -10
 74
   -10
  0
VERTEX
  5
1D1
330
11
100
AcDbEntity
  8
0
 62
     0
100
AcDbFaceRecord
 10
0.0
 20
0.0
 30
0.0
 70
   128
 71
   -56
 72
   -30
 73
   -38
 74
   -38
  0
VERTEX
  5
1D2
330
11
100
AcDbEntity
  8
0
 62
     0
100
AcDbFaceRecord
 10
0.0
 20
0.0
 30
0.0
 70
   128
 71
     1
 72
     2
 73
    30
 74
    29
  0
VERTEX
  5
1D3
330
11
100
AcDbEntity
  8
0
 62
     0
100
AcDbFaceRecord
 10
0.0
 20
0.0
 30
0.0
 70
   128
 71
     2
 72
     3
 73
    31
 74
    30
  0
VERTEX
  5
1D4
330
11
100
AcDbEntity
  8
0
 62
     0
100
AcDbFaceRecord
 10
0.0
 20
0.0
 30
0.0
 70
   128
 71
     3
 72
     4
 73
    32
 74
    31
  0
VERTEX
  5
1D5
330
11
100
AcDbEntity
  8
0
 62
     0
100
AcDbFaceRecord
 10
0.0
 20
0.0
 30
0.0
 70
   128
 71
     4
 72
     5
 73
    33
 74
    32
  0
VERTEX
  5
1D6
330
11
100
AcDbEntity
  8
0
 62
     0
100
AcDbFaceRecord
 10
0.0
 20
0.0
 30
0.0
 70
   128
 71
     5
 72
     6
 73
    34
 74
    33
  0
VERTEX
  5
1D7
330
11
100
AcDbEntity
  8
0
 62
     0
100
AcDbFaceRecord
 10
0.0
 20
0.0
 30
0.0
 70
   128
 71
     6
 72
     7
 73
    35
 74
    34
  0
VERTEX
  5
1D8
330
11
100
AcDbEntity
  8
0
 62
     0
100
AcDbFaceRecord
 10
0.0
 20
0.0
 30
0.0
 70
   128
 71
     7
 72
     8
 73
    36
 74
    35
  0
VERTEX
  5
1D9
330
11
100
AcDbEntity
  8
0
 62
     0
100
AcDbFaceRecord
 10
0.0
 20
0.0
 30
0.0
 70
   128
 71
     8
 72
     9
 73
    37
 74
    36
  0
VERTEX
  5
1DA
330
11
100
AcDbEntity
  8
0
 62
     0
100
AcDbFaceRecord
 10
0.0
 20
0.0
 30
0.0
 70
   128
 71
     9
 72
    10
 73
    38
 74
    37
  0
VERTEX
  5
1DB
330
11
100
AcDbEntity
  8
0
 62
     0
100
AcDbFaceRecord
 10
0.0
 20
0.0
 30
0.0
 70
   128
 71
    10
 72
    11
 73
    39
 74
    38
  0
VERTEX
  5
1DC
330
11
100
AcDbEntity
  8
0
 62
     0
100
AcDbFaceRecord
 10
0.0
 20
0.0
 30
0.0
 70
   128
 71
    11
 72
    12
 73
    40
 74
    39
  0
VERTEX
  5
1DD
330
11
100
AcDbEntity
  8
0
 62
     0
100
AcDbFaceRecord
 10
0.0
 20
0.0
 30
0.0
 70
   128
 71
    12
 72
    13
 73
    41
 74
    40
  0
VERTEX
  5
1DE
330
11
100
AcDbEntity
  8
0
 62
     0
100
AcDbFaceRecord
 10
0.0
 20
0.0
 30
0.0
 70
   128
 71
    13
 72
    14
 73
    42
 74
    41
  0
VERTEX
  5
1DF
330
11
100
AcDbEntity
  8
0
 62
     0
100
AcDbFaceRecord
 10
0.0
 20
0.0
 30
0.0
 70
   128
 71
    14
 72
    15
 73
    43
 74
    42
  0
VERTEX
  5
1E0
330
11
100
AcDbEntity
  8
0
 62
     0
100
AcDbFaceRecord
 10
0.0
 20
0.0
 30
0.0
 70
   128
 71
    15
 72
    16
 73
    44
 74
    43
  0
VERTEX
  5
1E1
330
11
100
AcDbEntity
  8
0
 62
     0
100
AcDbFaceRecord
 10
0.0
 20
0.0
 30
0.0
 70
   128
 71
    16
 72
    17
 73
    45
 74
    44
  0
VERTEX
  5
1E2
330
11
100
AcDbEntity
  8
0
 62
     0
100
AcDbFaceRecord
 10
0.0
 20
0.0
 30
0.0
 70
   128
 71
    17
 72
    18
 73
    46
 74
    45
  0
VERTEX
  5
1E3
330
11
100
AcDbEntity
  8
0
 62
     0
100
AcDbFaceRecord
 10
0.0
 20
0.0
 30
0.0
 70
   128
 71
    18
 72
    19
 73
    47
 74
    46
  0
VERTEX
  5
1E4
330
11
100
AcDbEntity
  8
0
 62
     0
100
AcDbFaceRecord
 10
0.0
 20
0.0
 30
0.0
 70
   128
 71
    19
 72
    20
 73
    48
 74
    47
  0
VERTEX
  5
1E5
330
11
100
AcDbEntity
  8
0
 62
     0
100
AcDbFaceRecord
 10
0.0
 20
0.0
 30
0.0
 70
   128
 71
    20
 72
    21
 73
    49
 74
    48
  0
VERTEX
  5
1E6
330
11
100
AcDbEntity
  8
0
 62
     0
100
AcDbFaceRecord
 10
0.0
 20
0.0
 30
0.0
 70
   128
 71
    21
 72
    22
 73
    50
 74
    49
  0
VERTEX
  5
1E7
330
11
100
AcDbEntity
  8
0
 62
     0
100
AcDbFaceRecord
 10
0.0
 20
0.0
 30
0.0
 70
   128
 71
    22
 72
    23
 73
    51
 74
    50
  0
VERTEX
  5
1E8
330
11
100
AcDbEntity
  8
0
 62
     0
100
AcDbFaceRecord
 10
0.0
 20
0.0
 30
0.0
 70
   128
 71
    23
 72
    24
 73
    52
 74
    51
  0
VERTEX
  5
1E9
330
11
100
AcDbEntity
  8
0
 62
     0
100
AcDbFaceRecord
 10
0.0
 20
0.0
 30
0.0
 70
   128
 71
    24
 72
    25
 73
    53
 74
    52
  0
VERTEX
  5
1EA
330
11
100
AcDbEntity
  8
0
 62
     0
100
AcDbFaceRecord
 10
0.0
 20
0.0
 30
0.0
 70
   128
 71
    25
 72
    26
 73
    54
 74
    53
  0
VERTEX
  5
1EB
330
11
100
AcDbEntity
  8
0
 62
     0
100
AcDbFaceRecord
 10
0.0
 20
0.0
 30
0.0
 70
   128
 71
    26
 72
    27
 73
    55
 74
    54
  0
VERTEX
  5
1EC
330
11
100
AcDbEntity
  8
0
 62
     0
100
AcDbFaceRecord
 10
0.0
 20
0.0
 30
0.0
 70
   128
 71
    27
 72
    28
 73
    56
 74
    55
  0
SEQEND
  5
179
330
11
100
AcDbEntity
  8
HOLME
  0
POLYLINE
  5
13
330
5D
100
AcDbEntity
  8
HOLME
100
AcDbPolyFaceMesh
 66
     1
 10
0.0
 20
0.0
 30
0.0
 70
    64
 71
    44
 72
    51
  0
VERTEX
  5
1EE
330
13
100
AcDbEntity
  8
0
100
AcDbVertex
100
AcDbPolyFaceMeshVertex
 10
939.9999999999951
 20
-80.0
 30
185.1088891388304
 70
   192
  0
VERTEX
  5
1EF
330
13
100
AcDbEntity
  8
0
100
AcDbVertex
100
AcDbPolyFaceMeshVertex
 10
939.9999999999907
 20
289.0371513014874
 30
351.1526903727763
 70
   192
  0
VERTEX
  5
1F0
330
13
100
AcDbEntity
  8
0
100
AcDbVertex
100
AcDbPolyFaceMeshVertex
 10
939.9999999999867
 20
573.1052923828302
 30
503.930468150554
 70
   192
  0
VERTEX
  5
1F1
330
13
100
AcDbEntity
  8
0
100
AcDbVertex
100
AcDbPolyFaceMeshVertex
 10
939.9999999999826
 20
822.69349349586
 30
656.7082459283317
 70
   192
  0
VERTEX
  5
1F2
330
13
100
AcDbEntity
  8
0
100
AcDbVertex
100
AcDbPolyFaceMeshVertex
 10
939.9999999999786
 20
1022.58889706884
 30
809.4860237061096
 70
   192
  0
VERTEX
  5
1F3
330
13
100
AcDbEntity
  8
0
100
AcDbVertex
100
AcDbPolyFaceMeshVertex
 10
939.9999999999764
 20
1060.0
 30
895.7186577111529
 70
   192
  0
VERTEX
  5
1F4
330
13
100
AcDbEntity
  8
0
100
AcDbVertex
100
AcDbPolyFaceMeshVertex
 10
939.9999999999764
 20
1060.0
 30
895.7186577111529
 70
   192
  0
VERTEX
  5
1F5
330
13
100
AcDbEntity
  8
0
100
AcDbVertex
100
AcDbPolyFaceMeshVertex
 10
939.9999999999764
 20
1075.0
 30
895.7186577111529
 70
   192
  0
VERTEX
  5
1F6
330
13
100
AcDbEntity
  8
0
100
AcDbVertex
100
AcDbPolyFaceMeshVertex
 10
939.9999999999799
 20
1075.0
 30
761.6649475495567
 70
   192
  0
VERTEX
  5
1F7
330
13
100
AcDbEntity
  8
0
100
AcDbVertex
100
AcDbPolyFaceMeshVertex
 10
939.9999999999799
 20
1060.0
 30
761.6649475495567
 70
   192
  0
VERTEX
  5
1F8
330
13
100
AcDbEntity
  8
0
100
AcDbVertex
100
AcDbPolyFaceMeshVertex
 10
939.9999999999834
 20
1060.0
 30
627.6112373879605
 70
   192
  0
VERTEX
  5
1F9
330
13
100
AcDbEntity
  8
0
100
AcDbVertex
100
AcDbPolyFaceMeshVertex
 10
939.9999999999834
 20
1075.0
 30
627.6112373879605
 70
   192
  0
VERTEX
  5
1FA
330
13
100
AcDbEntity
  8
0
100
AcDbVertex
100
AcDbPolyFaceMeshVertex
 10
939.999999999987
 20
1075.0
 30
493.5575272263644
 70
   192
  0
VERTEX
  5
1FB
330
13
100
AcDbEntity
  8
0
100
AcDbVertex
100
AcDbPolyFaceMeshVertex
 10
939.999999999987
 20
1060.0
 30
493.5575272263644
 70
   192
  0
VERTEX
  5
1FC
330
13
100
AcDbEntity
  8
0
100
AcDbVertex
100
AcDbPolyFaceMeshVertex
 10
939.999999999987
 20
1060.0
 30
493.5575272263644
 70
   192
  0
VERTEX
  5
1FD
330
13
100
AcDbEntity
  8
0
100
AcDbVertex
100
AcDbPolyFaceMeshVertex
 10
939.9999999999902
 20
895.253397495215
 30
372.7361985161126
 70
   192
  0
VERTEX
  5
1FE
330
13
100
AcDbEntity
  8
0
100
AcDbVertex
100
AcDbPolyFaceMeshVertex
 10
939.9999999999942
 20
644.3642285356576
 30
219.9584207383348
 70
   192
  0
VERTEX
  5
1FF
330
13
100
AcDbEntity
  8
0
100
AcDbVertex
100
AcDbPolyFaceMeshVertex
 10
940.0
 20
235.0563416517986
 30
0.0
 70
   192
  0
VERTEX
  5
200
330
13
100
AcDbEntity
  8
0
100
AcDbVertex
100
AcDbPolyFaceMeshVertex
 10
940.0
 20
235.0563416517986
 30
0.0
 70
   192
  0
VERTEX
  5
201
330
13
100
AcDbEntity
  8
0
100
AcDbVertex
100
AcDbPolyFaceMeshVertex
 10
940.0
 20
-80.0
 30
0.0
 70
   192
  0
VERTEX
  5
202
330
13
100
AcDbEntity
  8
0
100
AcDbVertex
100
AcDbPolyFaceMeshVertex
 10
940.0
 20
-80.0
 30
0.0
 70
   192
  0
VERTEX
  5
203
330
13
100
AcDbEntity
  8
0
100
AcDbVertex
100
AcDbPolyFaceMeshVertex
 10
939.9999999999951
 20
-80.0
 30
185.1088891388304
 70
   192
  0
VERTEX
  5
204
330
13
100
AcDbEntity
  8
0
100
AcDbVertex
100
AcDbPolyFaceMeshVertex
 10
924.9999999999951
 20
-80.0
 30
185.10888913883
 70
   192
  0
VERTEX
  5
205
330
13
100
AcDbEntity
  8
0
100
AcDbVertex
100
AcDbPolyFaceMeshVertex
 10
924.9999999999907
 20
289.0371513014874
 30
351.1526903727759
 70
   192
  0
VERTEX
  5
206
330
13
100
AcDbEntity
  8
0
100
AcDbVertex
100
AcDbPolyFaceMeshVertex
 10
924.9999999999867
 20
573.1052923828302
 30
503.9304681505536
 70
   192
  0
VERTEX
  5
207
330
13
100
AcDbEntity
  8
0
100
AcDbVertex
100
AcDbPolyFaceMeshVertex
 10
924.9999999999826
 20
822.69349349586
 30
656.7082459283314
 70
   192
  0
VERTEX
  5
208
330
13
100
AcDbEntity
  8
0
100
AcDbVertex
100
AcDbPolyFaceMeshVertex
 10
924.9999999999786
 20
1022.58889706884
 30
809.4860237061092
 70
   192
  0
VERTEX
  5
209
330
13
100
AcDbEntity
  8
0
100
AcDbVertex
100
AcDbPolyFaceMeshVertex
 10
924.9999999999764
 20
1060.0
 30
895.7186577111526
 70
   192
  0
VERTEX
  5
20A
330
13
100
AcDbEntity
  8
0
100
AcDbVertex
100
AcDbPolyFaceMeshVertex
 10
924.9999999999764
 20
1060.0
 30
895.7186577111526
 70
   192
  0
VERTEX
  5
20B
330
13
100
AcDbEntity
  8
0
100
AcDbVertex
100
AcDbPolyFaceMeshVertex
 10
924.9999999999764
 20
1075.0
 30
895.7186577111526
 70
   192
  0
VERTEX
  5
20C
330
13
100
AcDbEntity
  8
0
100
AcDbVertex
100
AcDbPolyFaceMeshVertex
 10
924.9999999999799
 20
1075.0
 30
761.6649475495564
 70
   192
  0
VERTEX
  5
20D
330
13
100
AcDbEntity
  8
0
100
AcDbVertex
100
AcDbPolyFaceMeshVertex
 10
924.9999999999799
 20
1060.0
 30
761.6649475495564
 70
   192
  0
VERTEX
  5
20E
330
13
100
AcDbEntity
  8
0
100
AcDbVertex
100
AcDbPolyFaceMeshVertex
 10
924.9999999999834
 20
1060.0
 30
627.6112373879602
 70
   192
  0
VERTEX
  5
20F
330
13
100
AcDbEntity
  8
0
100
AcDbVertex
100
AcDbPolyFaceMeshVertex
 10
924.9999999999834
 20
1075.0
 30
627.6112373879602
 70
   192
  0
VERTEX
  5
210
330
13
100
AcDbEntity
  8
0
100
AcDbVertex
100
AcDbPolyFaceMeshVertex
 10
924.999999999987
 20
1075.0
 30
493.557527226364
 70
   192
  0
VERTEX
  5
211
330
13
100
AcDbEntity
  8
0
100
AcDbVertex
100
AcDbPolyFaceMeshVertex
 10
924.999999999987
 20
1060.0
 30
493.557527226364
 70
   192
  0
VERTEX
  5
212
330
13
100
AcDbEntity
  8
0
100
AcDbVertex
100
AcDbPolyFaceMeshVertex
 10
924.999999999987
 20
1060.0
 30
493.557527226364
 70
   192
  0
VERTEX
  5
213
330
13
100
AcDbEntity
  8
0
100
AcDbVertex
100
AcDbPolyFaceMeshVertex
 10
924.9999999999902
 20
895.253397495215
 30
372.7361985161122
 70
   192
  0
VERTEX
  5
214
330
13
100
AcDbEntity
  8
0
100
AcDbVertex
100
AcDbPolyFaceMeshVertex
 10
924.9999999999942
 20
644.3642285356576
 30
219.9584207383344
 70
   192
  0
VERTEX
  5
215
330
13
100
AcDbEntity
  8
0
100
AcDbVertex
100
AcDbPolyFaceMeshVertex
 10
925.0
 20
235.0563416517986
 30
-0.0000000000003973
 70
   192
  0
VERTEX
  5
216
330
13
100
AcDbEntity
  8
0
100
AcDbVertex
100
AcDbPolyFaceMeshVertex
 10
925.0
 20
235.0563416517986
 30
-0.0000000000003973
 70
   192
  0
VERTEX
  5
217
330
13
100
AcDbEntity
  8
0
100
AcDbVertex
100
AcDbPolyFaceMeshVertex
 10
925.0
 20
-80.0
 30
-0.0000000000003973
 70
   192
  0
VERTEX
  5
218
330
13
100
AcDbEntity
  8
0
100
AcDbVertex
100
AcDbPolyFaceMeshVertex
 10
925.0
 20
-80.0
 30
-0.0000000000003973
 70
   192
  0
VERTEX
  5
219
330
13
100
AcDbEntity
  8
0
100
AcDbVertex
100
AcDbPolyFaceMeshVertex
 10
924.9999999999951
 20
-80.0
 30
185.10888913883
 70
   192
  0
VERTEX
  5
21A
330
13
100
AcDbEntity
  8
0
 62
     0
100
AcDbFaceRecord
 10
0.0
 20
0.0
 30
0.0
 70
   128
 71
    -5
 72
    -7
 73
    -8
 74
    -8
  0
VERTEX
  5
21B
330
13
100
AcDbEntity
  8
0
 62
     0
100
AcDbFaceRecord
 10
0.0
 20
0.0
 30
0.0
 70
   128
 71
   -27
 72
   -29
 73
   -30
 74
   -30
  0
VERTEX
  5
21C
330
13
100
AcDbEntity
  8
0
 62
     0
100
AcDbFaceRecord
 10
0.0
 20
0.0
 30
0.0
 70
   128
 71
    -5
 72
    -8
 73
    -9
 74
    -9
  0
VERTEX
  5
21D
330
13
100
AcDbEntity
  8
0
 62
     0
100
AcDbFaceRecord
 10
0.0
 20
0.0
 30
0.0
 70
   128
 71
   -27
 72
   -30
 73
   -31
 74
   -31
  0
VERTEX
  5
21E
330
13
100
AcDbEntity
  8
0
 62
     0
100
AcDbFaceRecord
 10
0.0
 20
0.0
 30
0.0
 70
   128
 71
    -5
 72
    -9
 73
   -10
 74
   -10
  0
VERTEX
  5
21F
330
13
100
AcDbEntity
  8
0
 62
     0
100
AcDbFaceRecord
 10
0.0
 20
0.0
 30
0.0
 70
   128
 71
   -27
 72
   -31
 73
   -32
 74
   -32
  0
VERTEX
  5
220
330
13
100
AcDbEntity
  8
0
 62
     0
100
AcDbFaceRecord
 10
0.0
 20
0.0
 30
0.0
 70
   128
 71
    -5
 72
   -10
 73
   -11
 74
   -11
  0
VERTEX
  5
221
330
13
100
AcDbEntity
  8
0
 62
     0
100
AcDbFaceRecord
 10
0.0
 20
0.0
 30
0.0
 70
   128
 71
   -27
 72
   -32
 73
   -33
 74
   -33
  0
VERTEX
  5
222
330
13
100
AcDbEntity
  8
0
 62
     0
100
AcDbFaceRecord
 10
0.0
 20
0.0
 30
0.0
 70
   128
 71
   -11
 72
   -12
 73
   -13
 74
   -13
  0
VERTEX
  5
223
330
13
100
AcDbEntity
  8
0
 62
     0
100
AcDbFaceRecord
 10
0.0
 20
0.0
 30
0.0
 70
   128
 71
   -33
 72
   -34
 73
   -35
 74
   -35
  0
VERTEX
  5
224
330
13
100
AcDbEntity
  8
0
 62
     0
100
AcDbFaceRecord
 10
0.0
 20
0.0
 30
0.0
 70
   128
 71
   -11
 72
   -13
 73
   -14
 74
   -14
  0
VERTEX
  5
225
330
13
100
AcDbEntity
  8
0
 62
     0
100
AcDbFaceRecord
 10
0.0
 20
0.0
 30
0.0
 70
   128
 71
   -33
 72
   -35
 73
   -36
 74
   -36
  0
VERTEX
  5
226
330
13
100
AcDbEntity
  8
0
 62
     0
100
AcDbFaceRecord
 10
0.0
 20
0.0
 30
0.0
 70
   128
 71
   -11
 72
   -15
 73
   -16
 74
   -16
  0
VERTEX
  5
227
330
13
100
AcDbEntity
  8
0
 62
     0
100
AcDbFaceRecord
 10
0.0
 20
0.0
 30
0.0
 70
   128
 71
   -33
 72
   -37
 73
   -38
 74
   -38
  0
VERTEX
  5
228
330
13
100
AcDbEntity
  8
0
 62
     0
100
AcDbFaceRecord
 10
0.0
 20
0.0
 30
0.0
 70
   128
 71
   -11
 72
   -16
 73
   -17
 74
   -17
  0
VERTEX
  5
229
330
13
100
AcDbEntity
  8
0
 62
     0
100
AcDbFaceRecord
 10
0.0
 20
0.0
 30
0.0
 70
   128
 71
   -33
 72
   -38
 73
   -39
 74
   -39
  0
VERTEX
  5
22A
330
13
100
AcDbEntity
  8
0
 62
     0
100
AcDbFaceRecord
 10
0.0
 20
0.0
 30
0.0
 70
   128
 71
   -11
 72
   -17
 73
   -18
 74
   -18
  0
VERTEX
  5
22B
330
13
100
AcDbEntity
  8
0
 62
     0
100
AcDbFaceRecord
 10
0.0
 20
0.0
 30
0.0
 70
   128
 71
   -33
 72
   -39
 73
   -40
 74
   -40
  0
VERTEX
  5
22C
330
13
100
AcDbEntity
  8
0
 62
     0
100
AcDbFaceRecord
 10
0.0
 20
0.0
 30
0.0
 70
   128
 71
   -11
 72
   -19
 73
   -20
 74
   -20
  0
VERTEX
  5
22D
330
13
100
AcDbEntity
  8
0
 62
     0
100
AcDbFaceRecord
 10
0.0
 20
0.0
 30
0.0
 70
   128
 71
   -33
 72
   -41
 73
   -42
 74
   -42
  0
VERTEX
  5
22E
330
13
100
AcDbEntity
  8
0
 62
     0
100
AcDbFaceRecord
 10
0.0
 20
0.0
 30
0.0
 70
   128
 71
   -11
 72
   -21
 73
   -22
 74
   -22
  0
VERTEX
  5
22F
330
13
100
AcDbEntity
  8
0
 62
     0
100
AcDbFaceRecord
 10
0.0
 20
0.0
 30
0.0
 70
   128
 71
   -33
 72
   -43
 73
   -44
 74
   -44
  0
VERTEX
  5
230
330
13
100
AcDbEntity
  8
0
 62
     0
100
AcDbFaceRecord
 10
0.0
 20
0.0
 30
0.0
 70
   128
 71
   -11
 72
   -22
 73
    -2
 74
    -2
  0
VERTEX
  5
231
330
13
100
AcDbEntity
  8
0
 62
     0
100
AcDbFaceRecord
 10
0.0
 20
0.0
 30
0.0
 70
   128
 71
   -33
 72
   -44
 73
   -24
 74
   -24
  0
VERTEX
  5
232
330
13
100
AcDbEntity
  8
0
 62
     0
100
AcDbFaceRecord
 10
0.0
 20
0.0
 30
0.0
 70
   128
 71
   -11
 72
    -2
 73
    -3
 74
    -3
  0
VERTEX
  5
233
330
13
100
AcDbEntity
  8
0
 62
     0
100
AcDbFaceRecord
 10
0.0
 20
0.0
 30
0.0
 70
   128
 71
   -33
 72
   -24
 73
   -25
 74
   -25
  0
VERTEX
  5
234
330
13
100
AcDbEntity
  8
0
 62
     0
100
AcDbFaceRecord
 10
0.0
 20
0.0
 30
0.0
 70
   128
 71
   -11
 72
    -3
 73
    -4
 74
    -4
  0
VERTEX
  5
235
330
13
100
AcDbEntity
  8
0
 62
     0
100
AcDbFaceRecord
 10
0.0
 20
0.0
 30
0.0
 70
   128
 71
   -33
 72
   -25
 73
   -26
 74
   -26
  0
VERTEX
  5
236
330
13
100
AcDbEntity
  8
0
 62
     0
100
AcDbFaceRecord
 10
0.0
 20
0.0
 30
0.0
 70
   128
 71
    -4
 72
    -5
 73
   -11
 74
   -11
  0
VERTEX
  5
237
330
13
100
AcDbEntity
  8
0
 62
     0
100
AcDbFaceRecord
 10
0.0
 20
0.0
 30
0.0
 70
   128
 71
   -26
 72
   -27
 73
   -33
 74
   -33
  0
VERTEX
  5
238
330
13
100
AcDbEntity
  8
0
 62
     0
100
AcDbFaceRecord
 10
0.0
 20
0.0
 30
0.0
 70
   128
 71
     1
 72
     2
 73
    24
 74
    23
  0
VERTEX
  5
239
330
13
100
AcDbEntity
  8
0
 62
     0
100
AcDbFaceRecord
 10
0.0
 20
0.0
 30
0.0
 70
   128
 71
     2
 72
     3
 73
    25
 74
    24
  0
VERTEX
  5
23A
330
13
100
AcDbEntity
  8
0
 62
     0
100
AcDbFaceRecord
 10
0.0
 20
0.0
 30
0.0
 70
   128
 71
     3
 72
     4
 73
    26
 74
    25
  0
VERTEX
  5
23B
330
13
100
AcDbEntity
  8
0
 62
     0
100
AcDbFaceRecord
 10
0.0
 20
0.0
 30
0.0
 70
   128
 71
     4
 72
     5
 73
    27
 74
    26
  0
VERTEX
  5
23C
330
13
100
AcDbEntity
  8
0
 62
     0
100
AcDbFaceRecord
 10
0.0
 20
0.0
 30
0.0
 70
   128
 71
     5
 72
     6
 73
    28
 74
    27
  0
VERTEX
  5
23D
330
13
100
AcDbEntity
  8
0
 62
     0
100
AcDbFaceRecord
 10
0.0
 20
0.0
 30
0.0
 70
   128
 71
     6
 72
     7
 73
    29
 74
    28
  0
VERTEX
  5
23E
330
13
100
AcDbEntity
  8
0
 62
     0
100
AcDbFaceRecord
 10
0.0
 20
0.0
 30
0.0
 70
   128
 71
     7
 72
     8
 73
    30
 74
    29
  0
VERTEX
  5
23F
330
13
100
AcDbEntity
  8
0
 62
     0
100
AcDbFaceRecord
 10
0.0
 20
0.0
 30
0.0
 70
   128
 71
     8
 72
     9
 73
    31
 74
    30
  0
VERTEX
  5
240
330
13
100
AcDbEntity
  8
0
 62
     0
100
AcDbFaceRecord
 10
0.0
 20
0.0
 30
0.0
 70
   128
 71
     9
 72
    10
 73
    32
 74
    31
  0
VERTEX
  5
241
330
13
100
AcDbEntity
  8
0
 62
     0
100
AcDbFaceRecord
 10
0.0
 20
0.0
 30
0.0
 70
   128
 71
    10
 72
    11
 73
    33
 74
    32
  0
VERTEX
  5
242
330
13
100
AcDbEntity
  8
0
 62
     0
100
AcDbFaceRecord
 10
0.0
 20
0.0
 30
0.0
 70
   128
 71
    11
 72
    12
 73
    34
 74
    33
  0
VERTEX
  5
243
330
13
100
AcDbEntity
  8
0
 62
     0
100
AcDbFaceRecord
 10
0.0
 20
0.0
 30
0.0
 70
   128
 71
    12
 72
    13
 73
    35
 74
    34
  0
VERTEX
  5
244
330
13
100
AcDbEntity
  8
0
 62
     0
100
AcDbFaceRecord
 10
0.0
 20
0.0
 30
0.0
 70
   128
 71
    13
 72
    14
 73
    36
 74
    35
  0
VERTEX
  5
245
330
13
100
AcDbEntity
  8
0
 62
     0
100
AcDbFaceRecord
 10
0.0
 20
0.0
 30
0.0
 70
   128
 71
    14
 72
    15
 73
    37
 74
    36
  0
VERTEX
  5
246
330
13
100
AcDbEntity
  8
0
 62
     0
100
AcDbFaceRecord
 10
0.0
 20
0.0
 30
0.0
 70
   128
 71
    15
 72
    16
 73
    38
 74
    37
  0
VERTEX
  5
247
330
13
100
AcDbEntity
  8
0
 62
     0
100
AcDbFaceRecord
 10
0.0
 20
0.0
 30
0.0
 70
   128
 71
    16
 72
    17
 73
    39
 74
    38
  0
VERTEX
  5
248
330
13
100
AcDbEntity
  8
0
 62
     0
100
AcDbFaceRecord
 10
0.0
 20
0.0
 30
0.0
 70
   128
 71
    17
 72
    18
 73
    40
 74
    39
  0
VERTEX
  5
249
330
13
100
AcDbEntity
  8
0
 62
     0
100
AcDbFaceRecord
 10
0.0
 20
0.0
 30
0.0
 70
   128
 71
    18
 72
    19
 73
    41
 74
    40
  0
VERTEX
  5
24A
330
13
100
AcDbEntity
  8
0
 62
     0
100
AcDbFaceRecord
 10
0.0
 20
0.0
 30
0.0
 70
   128
 71
    19
 72
    20
 73
    42
 74
    41
  0
VERTEX
  5
24B
330
13
100
AcDbEntity
  8
0
 62
     0
100
AcDbFaceRecord
 10
0.0
 20
0.0
 30
0.0
 70
   128
 71
    20
 72
    21
 73
    43
 74
    42
  0
VERTEX
  5
24C
330
13
100
AcDbEntity
  8
0
 62
     0
100
AcDbFaceRecord
 10
0.0
 20
0.0
 30
0.0
 70
   128
 71
    21
 72
    22
 73
    44
 74
    43
  0
SEQEND
  5
1ED
330
13
100
AcDbEntity
  8
HOLME
  0
POLYLINE
  5
15
330
5D
100
AcDbEntity
  8
HOLME
100
AcDbPolyFaceMesh
 66
     1
 10
0.0
 20
0.0
 30
0.0
 70
    64
 71
    58
 72
    72
  0
VERTEX
  5
24E
330
15
100
AcDbEntity
  8
0
100
AcDbVertex
100
AcDbPolyFaceMeshVertex
 10
939.9999999999999
 20
1060.000000000013
 30
493.5575272263644
 70
   192
  0
VERTEX
  5
24F
330
15
100
AcDbEntity
  8
0
100
AcDbVertex
100
AcDbPolyFaceMeshVertex
 10
939.9999999999999
 20
1060.000000000017
 30
627.6112373879605
 70
   192
  0
VERTEX
  5
250
330
15
100
AcDbEntity
  8
0
100
AcDbVertex
100
AcDbPolyFaceMeshVertex
 10
924.9999999999999
 20
1060.000000000017
 30
627.6112373879605
 70
   192
  0
VERTEX
  5
251
330
15
100
AcDbEntity
  8
0
100
AcDbVertex
100
AcDbPolyFaceMeshVertex
 10
924.9999999999999
 20
1060.00000000002
 30
761.6649475495567
 70
   192
  0
VERTEX
  5
252
330
15
100
AcDbEntity
  8
0
100
AcDbVertex
100
AcDbPolyFaceMeshVertex
 10
939.9999999999999
 20
1060.00000000002
 30
761.6649475495567
 70
   192
  0
VERTEX
  5
253
330
15
100
AcDbEntity
  8
0
100
AcDbVertex
100
AcDbPolyFaceMeshVertex
 10
939.9999999999999
 20
1060.000000000024
 30
895.7186577111529
 70
   192
  0
VERTEX
  5
254
330
15
100
AcDbEntity
  8
0
100
AcDbVertex
100
AcDbPolyFaceMeshVertex
 10
939.9999999999999
 20
1060.000000000024
 30
895.7186577111529
 70
   192
  0
VERTEX
  5
255
330
15
100
AcDbEntity
  8
0
100
AcDbVertex
100
AcDbPolyFaceMeshVertex
 10
967.856041382422
 20
1060.000000000026
 30
962.2638014838874
 70
   192
  0
VERTEX
  5
256
330
15
100
AcDbEntity
  8
0
100
AcDbVertex
100
AcDbPolyFaceMeshVertex
 10
1215.021804958822
 20
1060.00000000003
 30
1115.041579261665
 70
   192
  0
VERTEX
  5
257
330
15
100
AcDbEntity
  8
0
100
AcDbVertex
100
AcDbPolyFaceMeshVertex
 10
1510.42490530962
 20
1060.000000000034
 30
1267.819357039443
 70
   192
  0
VERTEX
  5
258
330
15
100
AcDbEntity
  8
0
100
AcDbVertex
100
AcDbPolyFaceMeshVertex
 10
1814.308631357412
 20
1060.000000000038
 30
1420.597134817221
 70
   192
  0
VERTEX
  5
259
330
15
100
AcDbEntity
  8
0
100
AcDbVertex
100
AcDbPolyFaceMeshVertex
 10
2134.635924045244
 20
1060.000000000042
 30
1573.374912594999
 70
   192
  0
VERTEX
  5
25A
330
15
100
AcDbEntity
  8
0
100
AcDbVertex
100
AcDbPolyFaceMeshVertex
 10
2425.356103864322
 20
1060.000000000046
 30
1726.152690372776
 70
   192
  0
VERTEX
  5
25B
330
15
100
AcDbEntity
  8
0
100
AcDbVertex
100
AcDbPolyFaceMeshVertex
 10
2460.0
 20
1060.000000000051
 30
1903.548443398307
 70
   192
  0
VERTEX
  5
25C
330
15
100
AcDbEntity
  8
0
100
AcDbVertex
100
AcDbPolyFaceMeshVertex
 10
2460.0
 20
1060.000000000051
 30
1903.548443398307
 70
   192
  0
VERTEX
  5
25D
330
15
100
AcDbEntity
  8
0
100
AcDbVertex
100
AcDbPolyFaceMeshVertex
 10
2475.0
 20
1060.000000000051
 30
1903.548443398307
 70
   192
  0
VERTEX
  5
25E
330
15
100
AcDbEntity
  8
0
100
AcDbVertex
100
AcDbPolyFaceMeshVertex
 10
2475.0
 20
1060.000000000046
 30
1736.483044278678
 70
   192
  0
VERTEX
  5
25F
330
15
100
AcDbEntity
  8
0
100
AcDbVertex
100
AcDbPolyFaceMeshVertex
 10
2460.0
 20
1060.000000000046
 30
1736.483044278678
 70
   192
  0
VERTEX
  5
260
330
15
100
AcDbEntity
  8
0
100
AcDbVertex
100
AcDbPolyFaceMeshVertex
 10
2460.0
 20
1060.000000000042
 30
1569.417645159049
 70
   192
  0
VERTEX
  5
261
330
15
100
AcDbEntity
  8
0
100
AcDbVertex
100
AcDbPolyFaceMeshVertex
 10
2475.0
 20
1060.000000000042
 30
1569.417645159049
 70
   192
  0
VERTEX
  5
262
330
15
100
AcDbEntity
  8
0
100
AcDbVertex
100
AcDbPolyFaceMeshVertex
 10
2475.0
 20
1060.000000000037
 30
1402.35224603942
 70
   192
  0
VERTEX
  5
263
330
15
100
AcDbEntity
  8
0
100
AcDbVertex
100
AcDbPolyFaceMeshVertex
 10
2460.0
 20
1060.000000000037
 30
1402.35224603942
 70
   192
  0
VERTEX
  5
264
330
15
100
AcDbEntity
  8
0
100
AcDbVertex
100
AcDbPolyFaceMeshVertex
 10
2460.0
 20
1060.000000000037
 30
1402.35224603942
 70
   192
  0
VERTEX
  5
265
330
15
100
AcDbEntity
  8
0
100
AcDbVertex
100
AcDbPolyFaceMeshVertex
 10
2205.731937541022
 20
1060.000000000034
 30
1289.402865182779
 70
   192
  0
VERTEX
  5
266
330
15
100
AcDbEntity
  8
0
100
AcDbVertex
100
AcDbPolyFaceMeshVertex
 10
1885.348159571905
 20
1060.00000000003
 30
1136.625087405002
 70
   192
  0
VERTEX
  5
267
330
15
100
AcDbEntity
  8
0
100
AcDbVertex
100
AcDbPolyFaceMeshVertex
 10
1581.504516103029
 20
1060.000000000026
 30
983.8473096272237
 70
   192
  0
VERTEX
  5
268
330
15
100
AcDbEntity
  8
0
100
AcDbVertex
100
AcDbPolyFaceMeshVertex
 10
1286.410032606433
 20
1060.000000000022
 30
831.0695318494459
 70
   192
  0
VERTEX
  5
269
330
15
100
AcDbEntity
  8
0
100
AcDbVertex
100
AcDbPolyFaceMeshVertex
 10
1040.859362718858
 20
1060.000000000018
 30
678.2917540716683
 70
   192
  0
VERTEX
  5
26A
330
15
100
AcDbEntity
  8
0
100
AcDbVertex
100
AcDbPolyFaceMeshVertex
 10
939.9999999999999
 20
1060.000000000013
 30
493.5575272263644
 70
   192
  0
VERTEX
  5
26B
330
15
100
AcDbEntity
  8
0
100
AcDbVertex
100
AcDbPolyFaceMeshVertex
 10
939.9999999999999
 20
1075.000000000013
 30
493.557527226364
 70
   192
  0
VERTEX
  5
26C
330
15
100
AcDbEntity
  8
0
100
AcDbVertex
100
AcDbPolyFaceMeshVertex
 10
939.9999999999999
 20
1075.000000000017
 30
627.6112373879602
 70
   192
  0
VERTEX
  5
26D
330
15
100
AcDbEntity
  8
0
100
AcDbVertex
100
AcDbPolyFaceMeshVertex
 10
924.9999999999999
 20
1075.000000000017
 30
627.6112373879602
 70
   192
  0
VERTEX
  5
26E
330
15
100
AcDbEntity
  8
0
100
AcDbVertex
100
AcDbPolyFaceMeshVertex
 10
924.9999999999999
 20
1075.00000000002
 30
761.6649475495564
 70
   192
  0
VERTEX
  5
26F
330
15
100
AcDbEntity
  8
0
100
AcDbVertex
100
AcDbPolyFaceMeshVertex
 10
939.9999999999999
 20
1075.00000000002
 30
761.6649475495564
 70
   192
  0
VERTEX
  5
270
330
15
100
AcDbEntity
  8
0
100
AcDbVertex
100
AcDbPolyFaceMeshVertex
 10
939.9999999999999
 20
1075.000000000024
 30
895.7186577111526
 70
   192
  0
VERTEX
  5
271
330
15
100
AcDbEntity
  8
0
100
AcDbVertex
100
AcDbPolyFaceMeshVertex
 10
939.9999999999999
 20
1075.000000000024
 30
895.7186577111526
 70
   192
  0
VERTEX
  5
272
330
15
100
AcDbEntity
  8
0
100
AcDbVertex
100
AcDbPolyFaceMeshVertex
 10
967.856041382422
 20
1075.000000000026
 30
962.2638014838871
 70
   192
  0
VERTEX
  5
273
330
15
100
AcDbEntity
  8
0
100
AcDbVertex
100
AcDbPolyFaceMeshVertex
 10
1215.021804958822
 20
1075.00000000003
 30
1115.041579261665
 70
   192
  0
VERTEX
  5
274
330
15
100
AcDbEntity
  8
0
100
AcDbVertex
100
AcDbPolyFaceMeshVertex
 10
1510.42490530962
 20
1075.000000000034
 30
1267.819357039442
 70
   192
  0
VERTEX
  5
275
330
15
100
AcDbEntity
  8
0
100
AcDbVertex
100
AcDbPolyFaceMeshVertex
 10
1814.308631357412
 20
1075.000000000038
 30
1420.59713481722
 70
   192
  0
VERTEX
  5
276
330
15
100
AcDbEntity
  8
0
100
AcDbVertex
100
AcDbPolyFaceMeshVertex
 10
2134.635924045244
 20
1075.000000000042
 30
1573.374912594998
 70
   192
  0
VERTEX
  5
277
330
15
100
AcDbEntity
  8
0
100
AcDbVertex
100
AcDbPolyFaceMeshVertex
 10
2425.356103864322
 20
1075.000000000046
 30
1726.152690372776
 70
   192
  0
VERTEX
  5
278
330
15
100
AcDbEntity
  8
0
100
AcDbVertex
100
AcDbPolyFaceMeshVertex
 10
2460.0
 20
1075.000000000051
 30
1903.548443398307
 70
   192
  0
VERTEX
  5
279
330
15
100
AcDbEntity
  8
0
100
AcDbVertex
100
AcDbPolyFaceMeshVertex
 10
2460.0
 20
1075.000000000051
 30
1903.548443398307
 70
   192
  0
VERTEX
  5
27A
330
15
100
AcDbEntity
  8
0
100
AcDbVertex
100
AcDbPolyFaceMeshVertex
 10
2475.0
 20
1075.000000000051
 30
1903.548443398307
 70
   192
  0
VERTEX
  5
27B
330
15
100
AcDbEntity
  8
0
100
AcDbVertex
100
AcDbPolyFaceMeshVertex
 10
2475.0
 20
1075.000000000046
 30
1736.483044278678
 70
   192
  0
VERTEX
  5
27C
330
15
100
AcDbEntity
  8
0
100
AcDbVertex
100
AcDbPolyFaceMeshVertex
 10
2460.0
 20
1075.000000000046
 30
1736.483044278678
 70
   192
  0
VERTEX
  5
27D
330
15
100
AcDbEntity
  8
0
100
AcDbVertex
100
AcDbPolyFaceMeshVertex
 10
2460.0
 20
1075.000000000042
 30
1569.417645159048
 70
   192
  0
VERTEX
  5
27E
330
15
100
AcDbEntity
  8
0
100
AcDbVertex
100
AcDbPolyFaceMeshVertex
 10
2475.0
 20
1075.000000000042
 30
1569.417645159048
 70
   192
  0
VERTEX
  5
27F
330
15
100
AcDbEntity
  8
0
100
AcDbVertex
100
AcDbPolyFaceMeshVertex
 10
2475.0
 20
1075.000000000037
 30
1402.352246039419
 70
   192
  0
VERTEX
  5
280
330
15
100
AcDbEntity
  8
0
100
AcDbVertex
100
AcDbPolyFaceMeshVertex
 10
2460.0
 20
1075.000000000037
 30
1402.352246039419
 70
   192
  0
VERTEX
  5
281
330
15
100
AcDbEntity
  8
0
100
AcDbVertex
100
AcDbPolyFaceMeshVertex
 10
2460.0
 20
1075.000000000037
 30
1402.352246039419
 70
   192
  0
VERTEX
  5
282
330
15
100
AcDbEntity
  8
0
100
AcDbVertex
100
AcDbPolyFaceMeshVertex
 10
2205.731937541022
 20
1075.000000000034
 30
1289.402865182779
 70
   192
  0
VERTEX
  5
283
330
15
100
AcDbEntity
  8
0
100
AcDbVertex
100
AcDbPolyFaceMeshVertex
 10
1885.348159571905
 20
1075.00000000003
 30
1136.625087405001
 70
   192
  0
VERTEX
  5
284
330
15
100
AcDbEntity
  8
0
100
AcDbVertex
100
AcDbPolyFaceMeshVertex
 10
1581.504516103029
 20
1075.000000000026
 30
983.8473096272234
 70
   192
  0
VERTEX
  5
285
330
15
100
AcDbEntity
  8
0
100
AcDbVertex
100
AcDbPolyFaceMeshVertex
 10
1286.410032606433
 20
1075.000000000022
 30
831.0695318494455
 70
   192
  0
VERTEX
  5
286
330
15
100
AcDbEntity
  8
0
100
AcDbVertex
100
AcDbPolyFaceMeshVertex
 10
1040.859362718858
 20
1075.000000000018
 30
678.2917540716679
 70
   192
  0
VERTEX
  5
287
330
15
100
AcDbEntity
  8
0
100
AcDbVertex
100
AcDbPolyFaceMeshVertex
 10
939.9999999999999
 20
1075.000000000013
 30
493.557527226364
 70
   192
  0
VERTEX
  5
288
330
15
100
AcDbEntity
  8
0
 62
     0
100
AcDbFaceRecord
 10
0.0
 20
0.0
 30
0.0
 70
   128
 71
    -2
 72
    -3
 73
    -4
 74
    -4
  0
VERTEX
  5
289
330
15
100
AcDbEntity
  8
0
 62
     0
100
AcDbFaceRecord
 10
0.0
 20
0.0
 30
0.0
 70
   128
 71
   -31
 72
   -32
 73
   -33
 74
   -33
  0
VERTEX
  5
28A
330
15
100
AcDbEntity
  8
0
 62
     0
100
AcDbFaceRecord
 10
0.0
 20
0.0
 30
0.0
 70
   128
 71
    -2
 72
    -4
 73
    -5
 74
    -5
  0
VERTEX
  5
28B
330
15
100
AcDbEntity
  8
0
 62
     0
100
AcDbFaceRecord
 10
0.0
 20
0.0
 30
0.0
 70
   128
 71
   -31
 72
   -33
 73
   -34
 74
   -34
  0
VERTEX
  5
28C
330
15
100
AcDbEntity
  8
0
 62
     0
100
AcDbFaceRecord
 10
0.0
 20
0.0
 30
0.0
 70
   128
 71
    -2
 72
    -7
 73
    -8
 74
    -8
  0
VERTEX
  5
28D
330
15
100
AcDbEntity
  8
0
 62
     0
100
AcDbFaceRecord
 10
0.0
 20
0.0
 30
0.0
 70
   128
 71
   -31
 72
   -36
 73
   -37
 74
   -37
  0
VERTEX
  5
28E
330
15
100
AcDbEntity
  8
0
 62
     0
100
AcDbFaceRecord
 10
0.0
 20
0.0
 30
0.0
 70
   128
 71
    -2
 72
    -8
 73
    -9
 74
    -9
  0
VERTEX
  5
28F
330
15
100
AcDbEntity
  8
0
 62
     0
100
AcDbFaceRecord
 10
0.0
 20
0.0
 30
0.0
 70
   128
 71
   -31
 72
   -37
 73
   -38
 74
   -38
  0
VERTEX
  5
290
330
15
100
AcDbEntity
  8
0
 62
     0
100
AcDbFaceRecord
 10
0.0
 20
0.0
 30
0.0
 70
   128
 71
    -2
 72
    -9
 73
   -10
 74
   -10
  0
VERTEX
  5
291
330
15
100
AcDbEntity
  8
0
 62
     0
100
AcDbFaceRecord
 10
0.0
 20
0.0
 30
0.0
 70
   128
 71
   -31
 72
   -38
 73
   -39
 74
   -39
  0
VERTEX
  5
292
330
15
100
AcDbEntity
  8
0
 62
     0
100
AcDbFaceRecord
 10
0.0
 20
0.0
 30
0.0
 70
   128
 71
    -2
 72
   -10
 73
   -11
 74
   -11
  0
VERTEX
  5
293
330
15
100
AcDbEntity
  8
0
 62
     0
100
AcDbFaceRecord
 10
0.0
 20
0.0
 30
0.0
 70
   128
 71
   -31
 72
   -39
 73
   -40
 74
   -40
  0
VERTEX
  5
294
330
15
100
AcDbEntity
  8
0
 62
     0
100
AcDbFaceRecord
 10
0.0
 20
0.0
 30
0.0
 70
   128
 71
    -2
 72
   -11
 73
   -12
 74
   -12
  0
VERTEX
  5
295
330
15
100
AcDbEntity
  8
0
 62
     0
100
AcDbFaceRecord
 10
0.0
 20
0.0
 30
0.0
 70
   128
 71
   -31
 72
   -40
 73
   -41
 74
   -41
  0
VERTEX
  5
296
330
15
100
AcDbEntity
  8
0
 62
     0
100
AcDbFaceRecord
 10
0.0
 20
0.0
 30
0.0
 70
   128
 71
    -2
 72
   -12
 73
   -13
 74
   -13
  0
VERTEX
  5
297
330
15
100
AcDbEntity
  8
0
 62
     0
100
AcDbFaceRecord
 10
0.0
 20
0.0
 30
0.0
 70
   128
 71
   -31
 72
   -41
 73
   -42
 74
   -42
  0
VERTEX
  5
298
330
15
100
AcDbEntity
  8
0
 62
     0
100
AcDbFaceRecord
 10
0.0
 20
0.0
 30
0.0
 70
   128
 71
   -13
 72
   -15
 73
   -16
 74
   -16
  0
VERTEX
  5
299
330
15
100
AcDbEntity
  8
0
 62
     0
100
AcDbFaceRecord
 10
0.0
 20
0.0
 30
0.0
 70
   128
 71
   -42
 72
   -44
 73
   -45
 74
   -45
  0
VERTEX
  5
29A
330
15
100
AcDbEntity
  8
0
 62
     0
100
AcDbFaceRecord
 10
0.0
 20
0.0
 30
0.0
 70
   128
 71
   -16
 72
   -17
 73
   -18
 74
   -18
  0
VERTEX
  5
29B
330
15
100
AcDbEntity
  8
0
 62
     0
100
AcDbFaceRecord
 10
0.0
 20
0.0
 30
0.0
 70
   128
 71
   -45
 72
   -46
 73
   -47
 74
   -47
  0
VERTEX
  5
29C
330
15
100
AcDbEntity
  8
0
 62
     0
100
AcDbFaceRecord
 10
0.0
 20
0.0
 30
0.0
 70
   128
 71
   -19
 72
   -20
 73
   -21
 74
   -21
  0
VERTEX
  5
29D
330
15
100
AcDbEntity
  8
0
 62
     0
100
AcDbFaceRecord
 10
0.0
 20
0.0
 30
0.0
 70
   128
 71
   -48
 72
   -49
 73
   -50
 74
   -50
  0
VERTEX
  5
29E
330
15
100
AcDbEntity
  8
0
 62
     0
100
AcDbFaceRecord
 10
0.0
 20
0.0
 30
0.0
 70
   128
 71
   -19
 72
   -21
 73
   -22
 74
   -22
  0
VERTEX
  5
29F
330
15
100
AcDbEntity
  8
0
 62
     0
100
AcDbFaceRecord
 10
0.0
 20
0.0
 30
0.0
 70
   128
 71
   -48
 72
   -50
 73
   -51
 74
   -51
  0
VERTEX
  5
2A0
330
15
100
AcDbEntity
  8
0
 62
     0
100
AcDbFaceRecord
 10
0.0
 20
0.0
 30
0.0
 70
   128
 71
   -19
 72
   -23
 73
   -24
 74
   -24
  0
VERTEX
  5
2A1
330
15
100
AcDbEntity
  8
0
 62
     0
100
AcDbFaceRecord
 10
0.0
 20
0.0
 30
0.0
 70
   128
 71
   -48
 72
   -52
 73
   -53
 74
   -53
  0
VERTEX
  5
2A2
330
15
100
AcDbEntity
  8
0
 62
     0
100
AcDbFaceRecord
 10
0.0
 20
0.0
 30
0.0
 70
   128
 71
   -19
 72
   -24
 73
   -25
 74
   -25
  0
VERTEX
  5
2A3
330
15
100
AcDbEntity
  8
0
 62
     0
100
AcDbFaceRecord
 10
0.0
 20
0.0
 30
0.0
 70
   128
 71
   -48
 72
   -53
 73
   -54
 74
   -54
  0
VERTEX
  5
2A4
330
15
100
AcDbEntity
  8
0
 62
     0
100
AcDbFaceRecord
 10
0.0
 20
0.0
 30
0.0
 70
   128
 71
   -19
 72
   -25
 73
   -26
 74
   -26
  0
VERTEX
  5
2A5
330
15
100
AcDbEntity
  8
0
 62
     0
100
AcDbFaceRecord
 10
0.0
 20
0.0
 30
0.0
 70
   128
 71
   -48
 72
   -54
 73
   -55
 74
   -55
  0
VERTEX
  5
2A6
330
15
100
AcDbEntity
  8
0
 62
     0
100
AcDbFaceRecord
 10
0.0
 20
0.0
 30
0.0
 70
   128
 71
   -19
 72
   -26
 73
   -27
 74
   -27
  0
VERTEX
  5
2A7
330
15
100
AcDbEntity
  8
0
 62
     0
100
AcDbFaceRecord
 10
0.0
 20
0.0
 30
0.0
 70
   128
 71
   -48
 72
   -55
 73
   -56
 74
   -56
  0
VERTEX
  5
2A8
330
15
100
AcDbEntity
  8
0
 62
     0
100
AcDbFaceRecord
 10
0.0
 20
0.0
 30
0.0
 70
   128
 71
   -19
 72
   -27
 73
   -28
 74
   -28
  0
VERTEX
  5
2A9
330
15
100
AcDbEntity
  8
0
 62
     0
100
AcDbFaceRecord
 10
0.0
 20
0.0
 30
0.0
 70
   128
 71
   -48
 72
   -56
 73
   -57
 74
   -57
  0
VERTEX
  5
2AA
330
15
100
AcDbEntity
  8
0
 62
     0
100
AcDbFaceRecord
 10
0.0
 20
0.0
 30
0.0
 70
   128
 71
   -28
 72
   -29
 73
    -2
 74
    -2
  0
VERTEX
  5
2AB
330
15
100
AcDbEntity
  8
0
 62
     0
100
AcDbFaceRecord
 10
0.0
 20
0.0
 30
0.0
 70
   128
 71
   -57
 72
   -58
 73
   -31
 74
   -31
  0
VERTEX
  5
2AC
330
15
100
AcDbEntity
  8
0
 62
     0
100
AcDbFaceRecord
 10
0.0
 20
0.0
 30
0.0
 70
   128
 71
   -28
 72
    -2
 73
   -13
 74
   -13
  0
VERTEX
  5
2AD
330
15
100
AcDbEntity
  8
0
 62
     0
100
AcDbFaceRecord
 10
0.0
 20
0.0
 30
0.0
 70
   128
 71
   -57
 72
   -31
 73
   -42
 74
   -42
  0
VERTEX
  5
2AE
330
15
100
AcDbEntity
  8
0
 62
     0
100
AcDbFaceRecord
 10
0.0
 20
0.0
 30
0.0
 70
   128
 71
   -13
 72
   -16
 73
   -18
 74
   -18
  0
VERTEX
  5
2AF
330
15
100
AcDbEntity
  8
0
 62
     0
100
AcDbFaceRecord
 10
0.0
 20
0.0
 30
0.0
 70
   128
 71
   -42
 72
   -45
 73
   -47
 74
   -47
  0
VERTEX
  5
2B0
330
15
100
AcDbEntity
  8
0
 62
     0
100
AcDbFaceRecord
 10
0.0
 20
0.0
 30
0.0
 70
   128
 71
   -13
 72
   -18
 73
   -19
 74
   -19
  0
VERTEX
  5
2B1
330
15
100
AcDbEntity
  8
0
 62
     0
100
AcDbFaceRecord
 10
0.0
 20
0.0
 30
0.0
 70
   128
 71
   -42
 72
   -47
 73
   -48
 74
   -48
  0
VERTEX
  5
2B2
330
15
100
AcDbEntity
  8
0
 62
     0
100
AcDbFaceRecord
 10
0.0
 20
0.0
 30
0.0
 70
   128
 71
   -19
 72
   -28
 73
   -13
 74
   -13
  0
VERTEX
  5
2B3
330
15
100
AcDbEntity
  8
0
 62
     0
100
AcDbFaceRecord
 10
0.0
 20
0.0
 30
0.0
 70
   128
 71
   -48
 72
   -57
 73
   -42
 74
   -42
  0
VERTEX
  5
2B4
330
15
100
AcDbEntity
  8
0
 62
     0
100
AcDbFaceRecord
 10
0.0
 20
0.0
 30
0.0
 70
   128
 71
     1
 72
     2
 73
    31
 74
    30
  0
VERTEX
  5
2B5
330
15
100
AcDbEntity
  8
0
 62
     0
100
AcDbFaceRecord
 10
0.0
 20
0.0
 30
0.0
 70
   128
 71
     2
 72
     3
 73
    32
 74
    31
  0
VERTEX
  5
2B6
330
15
100
AcDbEntity
  8
0
 62
     0
100
AcDbFaceRecord
 10
0.0
 20
0.0
 30
0.0
 70
   128
 71
     3
 72
     4
 73
    33
 74
    32
  0
VERTEX
  5
2B7
330
15
100
AcDbEntity
  8
0
 62
     0
100
AcDbFaceRecord
 10
0.0
 20
0.0
 30
0.0
 70
   128
 71
     4
 72
     5
 73
    34
 74
    33
  0
VERTEX
  5
2B8
330
15
100
AcDbEntity
  8
0
 62
     0
100
AcDbFaceRecord
 10
0.0
 20
0.0
 30
0.0
 70
   128
 71
     5
 72
     6
 73
    35
 74
    34
  0
VERTEX
  5
2B9
330
15
100
AcDbEntity
  8
0
 62
     0
100
AcDbFaceRecord
 10
0.0
 20
0.0
 30
0.0
 70
   128
 71
     6
 72
     7
 73
    36
 74
    35
  0
VERTEX
  5
2BA
330
15
100
AcDbEntity
  8
0
 62
     0
100
AcDbFaceRecord
 10
0.0
 20
0.0
 30
0.0
 70
   128
 71
     7
 72
     8
 73
    37
 74
    36
  0
VERTEX
  5
2BB
330
15
100
AcDbEntity
  8
0
 62
     0
100
AcDbFaceRecord
 10
0.0
 20
0.0
 30
0.0
 70
   128
 71
     8
 72
     9
 73
    38
 74
    37
  0
VERTEX
  5
2BC
330
15
100
AcDbEntity
  8
0
 62
     0
100
AcDbFaceRecord
 10
0.0
 20
0.0
 30
0.0
 70
   128
 71
     9
 72
    10
 73
    39
 74
    38
  0
VERTEX
  5
2BD
330
15
100
AcDbEntity
  8
0
 62
     0
100
AcDbFaceRecord
 10
0.0
 20
0.0
 30
0.0
 70
   128
 71
    10
 72
    11
 73
    40
 74
    39
  0
VERTEX
  5
2BE
330
15
100
AcDbEntity
  8
0
 62
     0
100
AcDbFaceRecord
 10
0.0
 20
0.0
 30
0.0
 70
   128
 71
    11
 72
    12
 73
    41
 74
    40
  0
VERTEX
  5
2BF
330
15
100
AcDbEntity
  8
0
 62
     0
100
AcDbFaceRecord
 10
0.0
 20
0.0
 30
0.0
 70
   128
 71
    12
 72
    13
 73
    42
 74
    41
  0
VERTEX
  5
2C0
330
15
100
AcDbEntity
  8
0
 62
     0
100
AcDbFaceRecord
 10
0.0
 20
0.0
 30
0.0
 70
   128
 71
    13
 72
    14
 73
    43
 74
    42
  0
VERTEX
  5
2C1
330
15
100
AcDbEntity
  8
0
 62
     0
100
AcDbFaceRecord
 10
0.0
 20
0.0
 30
0.0
 70
   128
 71
    14
 72
    15
 73
    44
 74
    43
  0
VERTEX
  5
2C2
330
15
100
AcDbEntity
  8
0
 62
     0
100
AcDbFaceRecord
 10
0.0
 20
0.0
 30
0.0
 70
   128
 71
    15
 72
    16
 73
    45
 74
    44
  0
VERTEX
  5
2C3
330
15
100
AcDbEntity
  8
0
 62
     0
100
AcDbFaceRecord
 10
0.0
 20
0.0
 30
0.0
 70
   128
 71
    16
 72
    17
 73
    46
 74
    45
  0
VERTEX
  5
2C4
330
15
100
AcDbEntity
  8
0
 62
     0
100
AcDbFaceRecord
 10
0.0
 20
0.0
 30
0.0
 70
   128
 71
    17
 72
    18
 73
    47
 74
    46
  0
VERTEX
  5
2C5
330
15
100
AcDbEntity
  8
0
 62
     0
100
AcDbFaceRecord
 10
0.0
 20
0.0
 30
0.0
 70
   128
 71
    18
 72
    19
 73
    48
 74
    47
  0
VERTEX
  5
2C6
330
15
100
AcDbEntity
  8
0
 62
     0
100
AcDbFaceRecord
 10
0.0
 20
0.0
 30
0.0
 70
   128
 71
    19
 72
    20
 73
    49
 74
    48
  0
VERTEX
  5
2C7
330
15
100
AcDbEntity
  8
0
 62
     0
100
AcDbFaceRecord
 10
0.0
 20
0.0
 30
0.0
 70
   128
 71
    20
 72
    21
 73
    50
 74
    49
  0
VERTEX
  5
2C8
330
15
100
AcDbEntity
  8
0
 62
     0
100
AcDbFaceRecord
 10
0.0
 20
0.0
 30
0.0
 70
   128
 71
    21
 72
    22
 73
    51
 74
    50
  0
VERTEX
  5
2C9
330
15
100
AcDbEntity
  8
0
 62
     0
100
AcDbFaceRecord
 10
0.0
 20
0.0
 30
0.0
 70
   128
 71
    22
 72
    23
 73
    52
 74
    51
  0
VERTEX
  5
2CA
330
15
100
AcDbEntity
  8
0
 62
     0
100
AcDbFaceRecord
 10
0.0
 20
0.0
 30
0.0
 70
   128
 71
    23
 72
    24
 73
    53
 74
    52
  0
VERTEX
  5
2CB
330
15
100
AcDbEntity
  8
0
 62
     0
100
AcDbFaceRecord
 10
0.0
 20
0.0
 30
0.0
 70
   128
 71
    24
 72
    25
 73
    54
 74
    53
  0
VERTEX
  5
2CC
330
15
100
AcDbEntity
  8
0
 62
     0
100
AcDbFaceRecord
 10
0.0
 20
0.0
 30
0.0
 70
   128
 71
    25
 72
    26
 73
    55
 74
    54
  0
VERTEX
  5
2CD
330
15
100
AcDbEntity
  8
0
 62
     0
100
AcDbFaceRecord
 10
0.0
 20
0.0
 30
0.0
 70
   128
 71
    26
 72
    27
 73
    56
 74
    55
  0
VERTEX
  5
2CE
330
15
100
AcDbEntity
  8
0
 62
     0
100
AcDbFaceRecord
 10
0.0
 20
0.0
 30
0.0
 70
   128
 71
    27
 72
    28
 73
    57
 74
    56
  0
VERTEX
  5
2CF
330
15
100
AcDbEntity
  8
0
 62
     0
100
AcDbFaceRecord
 10
0.0
 20
0.0
 30
0.0
 70
   128
 71
    28
 72
    29
 73
    58
 74
    57
  0
SEQEND
  5
24D
330
15
100
AcDbEntity
  8
HOLME
  0
LWPOLYLINE
  5
16
330
5D
100
AcDbEntity
  8
HOLME
100
AcDbPolyline
 90
       27
 70
     0
 43
0.0
 38
-0.0000000000371407
 10
2670.0
 20
1402.35224603942
 10
2722.316155282635
 20
1594.958420738335
 10
2868.745515870474
 20
1747.736198516113
 10
3083.247260475313
 20
1900.51397629389
 10
3422.800290903997
 20
2053.291754071668
 10
3762.353321334182
 20
2206.069531849446
 10
4101.906351764795
 20
2358.847309627224
 10
4441.459382195589
 20
2511.625087405002
 10
4730.0
 20
2641.450447322588
 10
4730.0
 20
2641.450447322588
 10
4730.0
 20
2800.0
 10
4730.0
 20
2800.0
 10
4380.213119164416
 20
2800.0
 10
4380.213119164416
 20
2800.0
 10
4370.427623936403
 20
2795.597134817221
 10
4030.87459350562
 20
2642.819357039443
 10
3691.321563075031
 20
2490.041579261665
 10
3351.768532644911
 20
2337.263801483887
 10
3012.215502216524
 20
2184.486023706109
 10
2796.596776709182
 20
2031.708245928332
 10
2670.0
 20
1903.548443398307
 10
2670.0
 20
1903.548443398307
 10
2670.0
 20
1736.483044278678
 10
2655.0
 20
1736.483044278678
 10
2655.0
 20
1569.417645159049
 10
2670.0
 20
1569.417645159049
 10
2670.0
 20
1402.35224603942
210
0.0
220
-1.0
230
0.0
  0
POLYLINE
  5
17
330
5D
100
AcDbEntity
  8
HOLME
100
AcDbPolyFaceMesh
 66
     1
 10
0.0
 20
0.0
 30
0.0
 70
    64
 71
    54
 72
    56
  0
VERTEX
  5
2D1
330
17
100
AcDbEntity
  8
0
100
AcDbVertex
100
AcDbPolyFaceMeshVertex
 10
2460.000000000037
 20
1060.0
 30
1402.35224603942
 70
   192
  0
VERTEX
  5
2D2
330
17
100
AcDbEntity
  8
0
100
AcDbVertex
100
AcDbPolyFaceMeshVertex
 10
2460.000000000042
 20
1007.683844717365
 30
1594.958420738335
 70
   192
  0
VERTEX
  5
2D3
330
17
100
AcDbEntity
  8
0
100
AcDbVertex
100
AcDbPolyFaceMeshVertex
 10
2460.000000000046
 20
861.2544841295262
 30
1747.736198516113
 70
   192
  0
VERTEX
  5
2D4
330
17
100
AcDbEntity
  8
0
100
AcDbVertex
100
AcDbPolyFaceMeshVertex
 10
2460.000000000051
 20
646.7527395246875
 30
1900.51397629389
 70
   192
  0
VERTEX
  5
2D5
330
17
100
AcDbEntity
  8
0
100
AcDbVertex
100
AcDbPolyFaceMeshVertex
 10
2460.000000000055
 20
307.1997090960026
 30
2053.291754071668
 70
   192
  0
VERTEX
  5
2D6
330
17
100
AcDbEntity
  8
0
100
AcDbVertex
100
AcDbPolyFaceMeshVertex
 10
2460.000000000059
 20
-32.3533213341816
 30
2206.069531849446
 70
   192
  0
VERTEX
  5
2D7
330
17
100
AcDbEntity
  8
0
100
AcDbVertex
100
AcDbPolyFaceMeshVertex
 10
2460.000000000063
 20
-371.9063517647946
 30
2358.847309627224
 70
   192
  0
VERTEX
  5
2D8
330
17
100
AcDbEntity
  8
0
100
AcDbVertex
100
AcDbPolyFaceMeshVertex
 10
2460.000000000067
 20
-711.4593821955887
 30
2511.625087405002
 70
   192
  0
VERTEX
  5
2D9
330
17
100
AcDbEntity
  8
0
100
AcDbVertex
100
AcDbPolyFaceMeshVertex
 10
2460.00000000007
 20
-1000.0
 30
2641.450447322588
 70
   192
  0
VERTEX
  5
2DA
330
17
100
AcDbEntity
  8
0
100
AcDbVertex
100
AcDbPolyFaceMeshVertex
 10
2460.00000000007
 20
-1000.0
 30
2641.450447322588
 70
   192
  0
VERTEX
  5
2DB
330
17
100
AcDbEntity
  8
0
100
AcDbVertex
100
AcDbPolyFaceMeshVertex
 10
2460.000000000075
 20
-1000.0
 30
2800.0
 70
   192
  0
VERTEX
  5
2DC
330
17
100
AcDbEntity
  8
0
100
AcDbVertex
100
AcDbPolyFaceMeshVertex
 10
2460.000000000075
 20
-1000.0
 30
2800.0
 70
   192
  0
VERTEX
  5
2DD
330
17
100
AcDbEntity
  8
0
100
AcDbVertex
100
AcDbPolyFaceMeshVertex
 10
2460.000000000075
 20
-650.2131191644157
 30
2800.0
 70
   192
  0
VERTEX
  5
2DE
330
17
100
AcDbEntity
  8
0
100
AcDbVertex
100
AcDbPolyFaceMeshVertex
 10
2460.000000000075
 20
-650.2131191644157
 30
2800.0
 70
   192
  0
VERTEX
  5
2DF
330
17
100
AcDbEntity
  8
0
100
AcDbVertex
100
AcDbPolyFaceMeshVertex
 10
2460.000000000074
 20
-640.4276239364026
 30
2795.597134817221
 70
   192
  0
VERTEX
  5
2E0
330
17
100
AcDbEntity
  8
0
100
AcDbVertex
100
AcDbPolyFaceMeshVertex
 10
2460.00000000007
 20
-300.8745935056195
 30
2642.819357039443
 70
   192
  0
VERTEX
  5
2E1
330
17
100
AcDbEntity
  8
0
100
AcDbVertex
100
AcDbPolyFaceMeshVertex
 10
2460.000000000066
 20
38.67843692496945
 30
2490.041579261665
 70
   192
  0
VERTEX
  5
2E2
330
17
100
AcDbEntity
  8
0
100
AcDbVertex
100
AcDbPolyFaceMeshVertex
 10
2460.000000000062
 20
378.2314673550895
 30
2337.263801483887
 70
   192
  0
VERTEX
  5
2E3
330
17
100
AcDbEntity
  8
0
100
AcDbVertex
100
AcDbPolyFaceMeshVertex
 10
2460.000000000058
 20
717.7844977834757
 30
2184.486023706109
 70
   192
  0
VERTEX
  5
2E4
330
17
100
AcDbEntity
  8
0
100
AcDbVertex
100
AcDbPolyFaceMeshVertex
 10
2460.000000000054
 20
933.4032232908176
 30
2031.708245928332
 70
   192
  0
VERTEX
  5
2E5
330
17
100
AcDbEntity
  8
0
100
AcDbVertex
100
AcDbPolyFaceMeshVertex
 10
2460.000000000051
 20
1060.0
 30
1903.548443398307
 70
   192
  0
VERTEX
  5
2E6
330
17
100
AcDbEntity
  8
0
100
AcDbVertex
100
AcDbPolyFaceMeshVertex
 10
2460.000000000051
 20
1060.0
 30
1903.548443398307
 70
   192
  0
VERTEX
  5
2E7
330
17
100
AcDbEntity
  8
0
100
AcDbVertex
100
AcDbPolyFaceMeshVertex
 10
2460.000000000046
 20
1060.0
 30
1736.483044278678
 70
   192
  0
VERTEX
  5
2E8
330
17
100
AcDbEntity
  8
0
100
AcDbVertex
100
AcDbPolyFaceMeshVertex
 10
2460.000000000046
 20
1075.0
 30
1736.483044278678
 70
   192
  0
VERTEX
  5
2E9
330
17
100
AcDbEntity
  8
0
100
AcDbVertex
100
AcDbPolyFaceMeshVertex
 10
2460.000000000042
 20
1075.0
 30
1569.417645159049
 70
   192
  0
VERTEX
  5
2EA
330
17
100
AcDbEntity
  8
0
100
AcDbVertex
100
AcDbPolyFaceMeshVertex
 10
2460.000000000042
 20
1060.0
 30
1569.417645159049
 70
   192
  0
VERTEX
  5
2EB
330
17
100
AcDbEntity
  8
0
100
AcDbVertex
100
AcDbPolyFaceMeshVertex
 10
2460.000000000037
 20
1060.0
 30
1402.35224603942
 70
   192
  0
VERTEX
  5
2EC
330
17
100
AcDbEntity
  8
0
100
AcDbVertex
100
AcDbPolyFaceMeshVertex
 10
2475.000000000037
 20
1060.0
 30
1402.352246039419
 70
   192
  0
VERTEX
  5
2ED
330
17
100
AcDbEntity
  8
0
100
AcDbVertex
100
AcDbPolyFaceMeshVertex
 10
2475.000000000042
 20
1007.683844717365
 30
1594.958420738334
 70
   192
  0
VERTEX
  5
2EE
330
17
100
AcDbEntity
  8
0
100
AcDbVertex
100
AcDbPolyFaceMeshVertex
 10
2475.000000000046
 20
861.2544841295262
 30
1747.736198516112
 70
   192
  0
VERTEX
  5
2EF
330
17
100
AcDbEntity
  8
0
100
AcDbVertex
100
AcDbPolyFaceMeshVertex
 10
2475.000000000051
 20
646.7527395246875
 30
1900.51397629389
 70
   192
  0
VERTEX
  5
2F0
330
17
100
AcDbEntity
  8
0
100
AcDbVertex
100
AcDbPolyFaceMeshVertex
 10
2475.000000000055
 20
307.1997090960026
 30
2053.291754071668
 70
   192
  0
VERTEX
  5
2F1
330
17
100
AcDbEntity
  8
0
100
AcDbVertex
100
AcDbPolyFaceMeshVertex
 10
2475.000000000059
 20
-32.3533213341816
 30
2206.069531849445
 70
   192
  0
VERTEX
  5
2F2
330
17
100
AcDbEntity
  8
0
100
AcDbVertex
100
AcDbPolyFaceMeshVertex
 10
2475.000000000063
 20
-371.9063517647946
 30
2358.847309627223
 70
   192
  0
VERTEX
  5
2F3
330
17
100
AcDbEntity
  8
0
100
AcDbVertex
100
AcDbPolyFaceMeshVertex
 10
2475.000000000067
 20
-711.4593821955887
 30
2511.625087405001
 70
   192
  0
VERTEX
  5
2F4
330
17
100
AcDbEntity
  8
0
100
AcDbVertex
100
AcDbPolyFaceMeshVertex
 10
2475.00000000007
 20
-1000.0
 30
2641.450447322588
 70
   192
  0
VERTEX
  5
2F5
330
17
100
AcDbEntity
  8
0
100
AcDbVertex
100
AcDbPolyFaceMeshVertex
 10
2475.00000000007
 20
-1000.0
 30
2641.450447322588
 70
   192
  0
VERTEX
  5
2F6
330
17
100
AcDbEntity
  8
0
100
AcDbVertex
100
AcDbPolyFaceMeshVertex
 10
2475.000000000075
 20
-1000.0
 30
2800.0
 70
   192
  0
VERTEX
  5
2F7
330
17
100
AcDbEntity
  8
0
100
AcDbVertex
100
AcDbPolyFaceMeshVertex
 10
2475.000000000075
 20
-1000.0
 30
2800.0
 70
   192
  0
VERTEX
  5
2F8
330
17
100
AcDbEntity
  8
0
100
AcDbVertex
100
AcDbPolyFaceMeshVertex
 10
2475.000000000075
 20
-650.2131191644157
 30
2800.0
 70
   192
  0
VERTEX
  5
2F9
330
17
100
AcDbEntity
  8
0
100
AcDbVertex
100
AcDbPolyFaceMeshVertex
 10
2475.000000000075
 20
-650.2131191644157
 30
2800.0
 70
   192
  0
VERTEX
  5
2FA
330
17
100
AcDbEntity
  8
0
100
AcDbVertex
100
AcDbPolyFaceMeshVertex
 10
2475.000000000074
 20
-640.4276239364026
 30
2795.59713481722
 70
   192
  0
VERTEX
  5
2FB
330
17
100
AcDbEntity
  8
0
100
AcDbVertex
100
AcDbPolyFaceMeshVertex
 10
2475.00000000007
 20
-300.8745935056195
 30
2642.819357039442
 70
   192
  0
VERTEX
  5
2FC
330
17
100
AcDbEntity
  8
0
100
AcDbVertex
100
AcDbPolyFaceMeshVertex
 10
2475.000000000066
 20
38.67843692496945
 30
2490.041579261665
 70
   192
  0
VERTEX
  5
2FD
330
17
100
AcDbEntity
  8
0
100
AcDbVertex
100
AcDbPolyFaceMeshVertex
 10
2475.000000000062
 20
378.2314673550895
 30
2337.263801483887
 70
   192
  0
VERTEX
  5
2FE
330
17
100
AcDbEntity
  8
0
100
AcDbVertex
100
AcDbPolyFaceMeshVertex
 10
2475.000000000058
 20
717.7844977834757
 30
2184.486023706109
 70
   192
  0
VERTEX
  5
2FF
330
17
100
AcDbEntity
  8
0
100
AcDbVertex
100
AcDbPolyFaceMeshVertex
 10
2475.000000000054
 20
933.4032232908176
 30
2031.708245928331
 70
   192
  0
VERTEX
  5
300
330
17
100
AcDbEntity
  8
0
100
AcDbVertex
100
AcDbPolyFaceMeshVertex
 10
2475.000000000051
 20
1060.0
 30
1903.548443398307
 70
   192
  0
VERTEX
  5
301
330
17
100
AcDbEntity
  8
0
100
AcDbVertex
100
AcDbPolyFaceMeshVertex
 10
2475.000000000051
 20
1060.0
 30
1903.548443398307
 70
   192
  0
VERTEX
  5
302
330
17
100
AcDbEntity
  8
0
100
AcDbVertex
100
AcDbPolyFaceMeshVertex
 10
2475.000000000046
 20
1060.0
 30
1736.483044278678
 70
   192
  0
VERTEX
  5
303
330
17
100
AcDbEntity
  8
0
100
AcDbVertex
100
AcDbPolyFaceMeshVertex
 10
2475.000000000046
 20
1075.0
 30
1736.483044278678
 70
   192
  0
VERTEX
  5
304
330
17
100
AcDbEntity
  8
0
100
AcDbVertex
100
AcDbPolyFaceMeshVertex
 10
2475.000000000042
 20
1075.0
 30
1569.417645159048
 70
   192
  0
VERTEX
  5
305
330
17
100
AcDbEntity
  8
0
100
AcDbVertex
100
AcDbPolyFaceMeshVertex
 10
2475.000000000042
 20
1060.0
 30
1569.417645159048
 70
   192
  0
VERTEX
  5
306
330
17
100
AcDbEntity
  8
0
100
AcDbVertex
100
AcDbPolyFaceMeshVertex
 10
2475.000000000037
 20
1060.0
 30
1402.352246039419
 70
   192
  0
VERTEX
  5
307
330
17
100
AcDbEntity
  8
0
 62
     0
100
AcDbFaceRecord
 10
0.0
 20
0.0
 30
0.0
 70
   128
 71
    -4
 72
   -10
 73
   -11
 74
   -11
  0
VERTEX
  5
308
330
17
100
AcDbEntity
  8
0
 62
     0
100
AcDbFaceRecord
 10
0.0
 20
0.0
 30
0.0
 70
   128
 71
   -31
 72
   -37
 73
   -38
 74
   -38
  0
VERTEX
  5
309
330
17
100
AcDbEntity
  8
0
 62
     0
100
AcDbFaceRecord
 10
0.0
 20
0.0
 30
0.0
 70
   128
 71
    -4
 72
   -12
 73
   -13
 74
   -13
  0
VERTEX
  5
30A
330
17
100
AcDbEntity
  8
0
 62
     0
100
AcDbFaceRecord
 10
0.0
 20
0.0
 30
0.0
 70
   128
 71
   -31
 72
   -39
 73
   -40
 74
   -40
  0
VERTEX
  5
30B
330
17
100
AcDbEntity
  8
0
 62
     0
100
AcDbFaceRecord
 10
0.0
 20
0.0
 30
0.0
 70
   128
 71
    -4
 72
   -14
 73
   -15
 74
   -15
  0
VERTEX
  5
30C
330
17
100
AcDbEntity
  8
0
 62
     0
100
AcDbFaceRecord
 10
0.0
 20
0.0
 30
0.0
 70
   128
 71
   -31
 72
   -41
 73
   -42
 74
   -42
  0
VERTEX
  5
30D
330
17
100
AcDbEntity
  8
0
 62
     0
100
AcDbFaceRecord
 10
0.0
 20
0.0
 30
0.0
 70
   128
 71
    -4
 72
   -15
 73
   -16
 74
   -16
  0
VERTEX
  5
30E
330
17
100
AcDbEntity
  8
0
 62
     0
100
AcDbFaceRecord
 10
0.0
 20
0.0
 30
0.0
 70
   128
 71
   -31
 72
   -42
 73
   -43
 74
   -43
  0
VERTEX
  5
30F
330
17
100
AcDbEntity
  8
0
 62
     0
100
AcDbFaceRecord
 10
0.0
 20
0.0
 30
0.0
 70
   128
 71
    -4
 72
   -16
 73
   -17
 74
   -17
  0
VERTEX
  5
310
330
17
100
AcDbEntity
  8
0
 62
     0
100
AcDbFaceRecord
 10
0.0
 20
0.0
 30
0.0
 70
   128
 71
   -31
 72
   -43
 73
   -44
 74
   -44
  0
VERTEX
  5
311
330
17
100
AcDbEntity
  8
0
 62
     0
100
AcDbFaceRecord
 10
0.0
 20
0.0
 30
0.0
 70
   128
 71
    -4
 72
   -17
 73
   -18
 74
   -18
  0
VERTEX
  5
312
330
17
100
AcDbEntity
  8
0
 62
     0
100
AcDbFaceRecord
 10
0.0
 20
0.0
 30
0.0
 70
   128
 71
   -31
 72
   -44
 73
   -45
 74
   -45
  0
VERTEX
  5
313
330
17
100
AcDbEntity
  8
0
 62
     0
100
AcDbFaceRecord
 10
0.0
 20
0.0
 30
0.0
 70
   128
 71
    -4
 72
   -18
 73
   -19
 74
   -19
  0
VERTEX
  5
314
330
17
100
AcDbEntity
  8
0
 62
     0
100
AcDbFaceRecord
 10
0.0
 20
0.0
 30
0.0
 70
   128
 71
   -31
 72
   -45
 73
   -46
 74
   -46
  0
VERTEX
  5
315
330
17
100
AcDbEntity
  8
0
 62
     0
100
AcDbFaceRecord
 10
0.0
 20
0.0
 30
0.0
 70
   128
 71
    -4
 72
   -19
 73
   -20
 74
   -20
  0
VERTEX
  5
316
330
17
100
AcDbEntity
  8
0
 62
     0
100
AcDbFaceRecord
 10
0.0
 20
0.0
 30
0.0
 70
   128
 71
   -31
 72
   -46
 73
   -47
 74
   -47
  0
VERTEX
  5
317
330
17
100
AcDbEntity
  8
0
 62
     0
100
AcDbFaceRecord
 10
0.0
 20
0.0
 30
0.0
 70
   128
 71
    -4
 72
   -20
 73
   -21
 74
   -21
  0
VERTEX
  5
318
330
17
100
AcDbEntity
  8
0
 62
     0
100
AcDbFaceRecord
 10
0.0
 20
0.0
 30
0.0
 70
   128
 71
   -31
 72
   -47
 73
   -48
 74
   -48
  0
VERTEX
  5
319
330
17
100
AcDbEntity
  8
0
 62
     0
100
AcDbFaceRecord
 10
0.0
 20
0.0
 30
0.0
 70
   128
 71
    -4
 72
   -22
 73
   -23
 74
   -23
  0
VERTEX
  5
31A
330
17
100
AcDbEntity
  8
0
 62
     0
100
AcDbFaceRecord
 10
0.0
 20
0.0
 30
0.0
 70
   128
 71
   -31
 72
   -49
 73
   -50
 74
   -50
  0
VERTEX
  5
31B
330
17
100
AcDbEntity
  8
0
 62
     0
100
AcDbFaceRecord
 10
0.0
 20
0.0
 30
0.0
 70
   128
 71
   -23
 72
   -24
 73
   -25
 74
   -25
  0
VERTEX
  5
31C
330
17
100
AcDbEntity
  8
0
 62
     0
100
AcDbFaceRecord
 10
0.0
 20
0.0
 30
0.0
 70
   128
 71
   -50
 72
   -51
 73
   -52
 74
   -52
  0
VERTEX
  5
31D
330
17
100
AcDbEntity
  8
0
 62
     0
100
AcDbFaceRecord
 10
0.0
 20
0.0
 30
0.0
 70
   128
 71
   -23
 72
   -25
 73
   -26
 74
   -26
  0
VERTEX
  5
31E
330
17
100
AcDbEntity
  8
0
 62
     0
100
AcDbFaceRecord
 10
0.0
 20
0.0
 30
0.0
 70
   128
 71
   -50
 72
   -52
 73
   -53
 74
   -53
  0
VERTEX
  5
31F
330
17
100
AcDbEntity
  8
0
 62
     0
100
AcDbFaceRecord
 10
0.0
 20
0.0
 30
0.0
 70
   128
 71
   -23
 72
   -27
 73
    -2
 74
    -2
  0
VERTEX
  5
320
330
17
100
AcDbEntity
  8
0
 62
     0
100
AcDbFaceRecord
 10
0.0
 20
0.0
 30
0.0
 70
   128
 71
   -50
 72
   -54
 73
   -29
 74
   -29
  0
VERTEX
  5
321
330
17
100
AcDbEntity
  8
0
 62
     0
100
AcDbFaceRecord
 10
0.0
 20
0.0
 30
0.0
 70
   128
 71
   -23
 72
    -2
 73
    -3
 74
    -3
  0
VERTEX
  5
322
330
17
100
AcDbEntity
  8
0
 62
     0
100
AcDbFaceRecord
 10
0.0
 20
0.0
 30
0.0
 70
   128
 71
   -50
 72
   -29
 73
   -30
 74
   -30
  0
VERTEX
  5
323
330
17
100
AcDbEntity
  8
0
 62
     0
100
AcDbFaceRecord
 10
0.0
 20
0.0
 30
0.0
 70
   128
 71
    -3
 72
    -4
 73
   -23
 74
   -23
  0
VERTEX
  5
324
330
17
100
AcDbEntity
  8
0
 62
     0
100
AcDbFaceRecord
 10
0.0
 20
0.0
 30
0.0
 70
   128
 71
   -30
 72
   -31
 73
   -50
 74
   -50
  0
VERTEX
  5
325
330
17
100
AcDbEntity
  8
0
 62
     0
100
AcDbFaceRecord
 10
0.0
 20
0.0
 30
0.0
 70
   128
 71
     1
 72
     2
 73
    29
 74
    28
  0
VERTEX
  5
326
330
17
100
AcDbEntity
  8
0
 62
     0
100
AcDbFaceRecord
 10
0.0
 20
0.0
 30
0.0
 70
   128
 71
     2
 72
     3
 73
    30
 74
    29
  0
VERTEX
  5
327
330
17
100
AcDbEntity
  8
0
 62
     0
100
AcDbFaceRecord
 10
0.0
 20
0.0
 30
0.0
 70
   128
 71
     3
 72
     4
 73
    31
 74
    30
  0
VERTEX
  5
328
330
17
100
AcDbEntity
  8
0
 62
     0
100
AcDbFaceRecord
 10
0.0
 20
0.0
 30
0.0
 70
   128
 71
     4
 72
     5
 73
    32
 74
    31
  0
VERTEX
  5
329
330
17
100
AcDbEntity
  8
0
 62
     0
100
AcDbFaceRecord
 10
0.0
 20
0.0
 30
0.0
 70
   128
 71
     5
 72
     6
 73
    33
 74
    32
  0
VERTEX
  5
32A
330
17
100
AcDbEntity
  8
0
 62
     0
100
AcDbFaceRecord
 10
0.0
 20
0.0
 30
0.0
 70
   128
 71
     6
 72
     7
 73
    34
 74
    33
  0
VERTEX
  5
32B
330
17
100
AcDbEntity
  8
0
 62
     0
100
AcDbFaceRecord
 10
0.0
 20
0.0
 30
0.0
 70
   128
 71
     7
 72
     8
 73
    35
 74
    34
  0
VERTEX
  5
32C
330
17
100
AcDbEntity
  8
0
 62
     0
100
AcDbFaceRecord
 10
0.0
 20
0.0
 30
0.0
 70
   128
 71
     8
 72
     9
 73
    36
 74
    35
  0
VERTEX
  5
32D
330
17
100
AcDbEntity
  8
0
 62
     0
100
AcDbFaceRecord
 10
0.0
 20
0.0
 30
0.0
 70
   128
 71
     9
 72
    10
 73
    37
 74
    36
  0
VERTEX
  5
32E
330
17
100
AcDbEntity
  8
0
 62
     0
100
AcDbFaceRecord
 10
0.0
 20
0.0
 30
0.0
 70
   128
 71
    10
 72
    11
 73
    38
 74
    37
  0
VERTEX
  5
32F
330
17
100
AcDbEntity
  8
0
 62
     0
100
AcDbFaceRecord
 10
0.0
 20
0.0
 30
0.0
 70
   128
 71
    11
 72
    12
 73
    39
 74
    38
  0
VERTEX
  5
330
330
17
100
AcDbEntity
  8
0
 62
     0
100
AcDbFaceRecord
 10
0.0
 20
0.0
 30
0.0
 70
   128
 71
    12
 72
    13
 73
    40
 74
    39
  0
VERTEX
  5
331
330
17
100
AcDbEntity
  8
0
 62
     0
100
AcDbFaceRecord
 10
0.0
 20
0.0
 30
0.0
 70
   128
 71
    13
 72
    14
 73
    41
 74
    40
  0
VERTEX
  5
332
330
17
100
AcDbEntity
  8
0
 62
     0
100
AcDbFaceRecord
 10
0.0
 20
0.0
 30
0.0
 70
   128
 71
    14
 72
    15
 73
    42
 74
    41
  0
VERTEX
  5
333
330
17
100
AcDbEntity
  8
0
 62
     0
100
AcDbFaceRecord
 10
0.0
 20
0.0
 30
0.0
 70
   128
 71
    15
 72
    16
 73
    43
 74
    42
  0
VERTEX
  5
334
330
17
100
AcDbEntity
  8
0
 62
     0
100
AcDbFaceRecord
 10
0.0
 20
0.0
 30
0.0
 70
   128
 71
    16
 72
    17
 73
    44
 74
    43
  0
VERTEX
  5
335
330
17
100
AcDbEntity
  8
0
 62
     0
100
AcDbFaceRecord
 10
0.0
 20
0.0
 30
0.0
 70
   128
 71
    17
 72
    18
 73
    45
 74
    44
  0
VERTEX
  5
336
330
17
100
AcDbEntity
  8
0
 62
     0
100
AcDbFaceRecord
 10
0.0
 20
0.0
 30
0.0
 70
   128
 71
    18
 72
    19
 73
    46
 74
    45
  0
VERTEX
  5
337
330
17
100
AcDbEntity
  8
0
 62
     0
100
AcDbFaceRecord
 10
0.0
 20
0.0
 30
0.0
 70
   128
 71
    19
 72
    20
 73
    47
 74
    46
  0
VERTEX
  5
338
330
17
100
AcDbEntity
  8
0
 62
     0
100
AcDbFaceRecord
 10
0.0
 20
0.0
 30
0.0
 70
   128
 71
    20
 72
    21
 73
    48
 74
    47
  0
VERTEX
  5
339
330
17
100
AcDbEntity
  8
0
 62
     0
100
AcDbFaceRecord
 10
0.0
 20
0.0
 30
0.0
 70
   128
 71
    21
 72
    22
 73
    49
 74
    48
  0
VERTEX
  5
33A
330
17
100
AcDbEntity
  8
0
 62
     0
100
AcDbFaceRecord
 10
0.0
 20
0.0
 30
0.0
 70
   128
 71
    22
 72
    23
 73
    50
 74
    49
  0
VERTEX
  5
33B
330
17
100
AcDbEntity
  8
0
 62
     0
100
AcDbFaceRecord
 10
0.0
 20
0.0
 30
0.0
 70
   128
 71
    23
 72
    24
 73
    51
 74
    50
  0
VERTEX
  5
33C
330
17
100
AcDbEntity
  8
0
 62
     0
100
AcDbFaceRecord
 10
0.0
 20
0.0
 30
0.0
 70
   128
 71
    24
 72
    25
 73
    52
 74
    51
  0
VERTEX
  5
33D
330
17
100
AcDbEntity
  8
0
 62
     0
100
AcDbFaceRecord
 10
0.0
 20
0.0
 30
0.0
 70
   128
 71
    25
 72
    26
 73
    53
 74
    52
  0
VERTEX
  5
33E
330
17
100
AcDbEntity
  8
0
 62
     0
100
AcDbFaceRecord
 10
0.0
 20
0.0
 30
0.0
 70
   128
 71
    26
 72
    27
 73
    54
 74
    53
  0
SEQEND
  5
2D0
330
17
100
AcDbEntity
  8
HOLME
  0
LWPOLYLINE
  5
19
330
5D
100
AcDbEntity
  8
STUFEN
100
AcDbPolyline
 90
        5
 70
     0
 43
0.0
 38
152.7777777777778
 10
55.0
 20
-30.0
 10
924.9999999999996
 20
-30.00000045
 10
925.0003695533995
 20
339.5530299809137
 10
55.0003695534004
 20
339.5530308509137
 10
55.0
 20
-30.0
  0
POLYLINE
  5
1A
330
5D
100
AcDbEntity
  8
STUFEN
100
AcDbPolyFaceMesh
 66
     1
 10
0.0
 20
0.0
 30
0.0
 70
    64
 71
    10
 72
     8
  0
VERTEX
  5
340
330
1A
100
AcDbEntity
  8
0
100
AcDbVertex
100
AcDbPolyFaceMeshVertex
 10
55.0
 20
-30.0
 30
152.7777777777778
 70
   192
  0
VERTEX
  5
341
330
1A
100
AcDbEntity
  8
0
100
AcDbVertex
100
AcDbPolyFaceMeshVertex
 10
924.9999999999996
 20
-30.00000045
 30
152.7777777777778
 70
   192
  0
VERTEX
  5
342
330
1A
100
AcDbEntity
  8
0
100
AcDbVertex
100
AcDbPolyFaceMeshVertex
 10
925.0003695533995
 20
339.5530299809137
 30
152.7777777777778
 70
   192
  0
VERTEX
  5
343
330
1A
100
AcDbEntity
  8
0
100
AcDbVertex
100
AcDbPolyFaceMeshVertex
 10
55.0003695534004
 20
339.5530308509137
 30
152.7777777777778
 70
   192
  0
VERTEX
  5
344
330
1A
100
AcDbEntity
  8
0
100
AcDbVertex
100
AcDbPolyFaceMeshVertex
 10
55.0
 20
-30.0
 30
152.7777777777778
 70
   192
  0
VERTEX
  5
345
330
1A
100
AcDbEntity
  8
0
100
AcDbVertex
100
AcDbPolyFaceMeshVertex
 10
55.0
 20
-30.0
 30
112.7777777777778
 70
   192
  0
VERTEX
  5
346
330
1A
100
AcDbEntity
  8
0
100
AcDbVertex
100
AcDbPolyFaceMeshVertex
 10
924.9999999999996
 20
-30.00000045
 30
112.7777777777778
 70
   192
  0
VERTEX
  5
347
330
1A
100
AcDbEntity
  8
0
100
AcDbVertex
100
AcDbPolyFaceMeshVertex
 10
925.0003695533995
 20
339.5530299809137
 30
112.7777777777778
 70
   192
  0
VERTEX
  5
348
330
1A
100
AcDbEntity
  8
0
100
AcDbVertex
100
AcDbPolyFaceMeshVertex
 10
55.0003695534004
 20
339.5530308509137
 30
112.7777777777778
 70
   192
  0
VERTEX
  5
349
330
1A
100
AcDbEntity
  8
0
100
AcDbVertex
100
AcDbPolyFaceMeshVertex
 10
55.0
 20
-30.0
 30
112.7777777777778
 70
   192
  0
VERTEX
  5
34A
330
1A
100
AcDbEntity
  8
0
 62
     0
100
AcDbFaceRecord
 10
0.0
 20
0.0
 30
0.0
 70
   128
 71
    -5
 72
    -2
 73
    -3
 74
    -3
  0
VERTEX
  5
34B
330
1A
100
AcDbEntity
  8
0
 62
     0
100
AcDbFaceRecord
 10
0.0
 20
0.0
 30
0.0
 70
   128
 71
   -10
 72
    -7
 73
    -8
 74
    -8
  0
VERTEX
  5
34C
330
1A
100
AcDbEntity
  8
0
 62
     0
100
AcDbFaceRecord
 10
0.0
 20
0.0
 30
0.0
 70
   128
 71
    -3
 72
    -4
 73
    -5
 74
    -5
  0
VERTEX
  5
34D
330
1A
100
AcDbEntity
  8
0
 62
     0
100
AcDbFaceRecord
 10
0.0
 20
0.0
 30
0.0
 70
   128
 71
    -8
 72
    -9
 73
   -10
 74
   -10
  0
VERTEX
  5
34E
330
1A
100
AcDbEntity
  8
0
 62
     0
100
AcDbFaceRecord
 10
0.0
 20
0.0
 30
0.0
 70
   128
 71
     1
 72
     2
 73
     7
 74
     6
  0
VERTEX
  5
34F
330
1A
100
AcDbEntity
  8
0
 62
     0
100
AcDbFaceRecord
 10
0.0
 20
0.0
 30
0.0
 70
   128
 71
     2
 72
     3
 73
     8
 74
     7
  0
VERTEX
  5
350
330
1A
100
AcDbEntity
  8
0
 62
     0
100
AcDbFaceRecord
 10
0.0
 20
0.0
 30
0.0
 70
   128
 71
     3
 72
     4
 73
     9
 74
     8
  0
VERTEX
  5
351
330
1A
100
AcDbEntity
  8
0
 62
     0
100
AcDbFaceRecord
 10
0.0
 20
0.0
 30
0.0
 70
   128
 71
     4
 72
     5
 73
    10
 74
     9
  0
SEQEND
  5
33F
330
1A
100
AcDbEntity
  8
STUFEN
  0
LWPOLYLINE
  5
1B
330
5D
100
AcDbEntity
  8
STUFEN
100
AcDbPolyline
 90
        5
 70
     0
 43
0.0
 38
305.5555555555555
 10
55.0003395533704
 20
309.5530308509138
 10
925.0003395533695
 20
309.5530299809138
 10
925.0006538490028
 20
623.8483489557345
 10
55.00076111973514
 20
731.1189740169491
 10
55.0003395533704
 20
309.5530308509138
  0
POLYLINE
  5
1C
330
5D
100
AcDbEntity
  8
STUFEN
100
AcDbPolyFaceMesh
 66
     1
 10
0.0
 20
0.0
 30
0.0
 70
    64
 71
    10
 72
     8
  0
VERTEX
  5
353
330
1C
100
AcDbEntity
  8
0
100
AcDbVertex
100
AcDbPolyFaceMeshVertex
 10
55.0003395533704
 20
309.5530308509138
 30
305.5555555555555
 70
   192
  0
VERTEX
  5
354
330
1C
100
AcDbEntity
  8
0
100
AcDbVertex
100
AcDbPolyFaceMeshVertex
 10
925.0003395533695
 20
309.5530299809138
 30
305.5555555555555
 70
   192
  0
VERTEX
  5
355
330
1C
100
AcDbEntity
  8
0
100
AcDbVertex
100
AcDbPolyFaceMeshVertex
 10
925.0006538490028
 20
623.8483489557345
 30
305.5555555555555
 70
   192
  0
VERTEX
  5
356
330
1C
100
AcDbEntity
  8
0
100
AcDbVertex
100
AcDbPolyFaceMeshVertex
 10
55.00076111973514
 20
731.1189740169491
 30
305.5555555555555
 70
   192
  0
VERTEX
  5
357
330
1C
100
AcDbEntity
  8
0
100
AcDbVertex
100
AcDbPolyFaceMeshVertex
 10
55.0003395533704
 20
309.5530308509138
 30
305.5555555555555
 70
   192
  0
VERTEX
  5
358
330
1C
100
AcDbEntity
  8
0
100
AcDbVertex
100
AcDbPolyFaceMeshVertex
 10
55.0003395533704
 20
309.5530308509138
 30
265.5555555555555
 70
   192
  0
VERTEX
  5
359
330
1C
100
AcDbEntity
  8
0
100
AcDbVertex
100
AcDbPolyFaceMeshVertex
 10
925.0003395533695
 20
309.5530299809138
 30
265.5555555555555
 70
   192
  0
VERTEX
  5
35A
330
1C
100
AcDbEntity
  8
0
100
AcDbVertex
100
AcDbPolyFaceMeshVertex
 10
925.0006538490028
 20
623.8483489557345
 30
265.5555555555555
 70
   192
  0
VERTEX
  5
35B
330
1C
100
AcDbEntity
  8
0
100
AcDbVertex
100
AcDbPolyFaceMeshVertex
 10
55.00076111973514
 20
731.1189740169491
 30
265.5555555555555
 70
   192
  0
VERTEX
  5
35C
330
1C
100
AcDbEntity
  8
0
100
AcDbVertex
100
AcDbPolyFaceMeshVertex
 10
55.0003395533704
 20
309.5530308509138
 30
265.5555555555555
 70
   192
  0
VERTEX
  5
35D
330
1C
100
AcDbEntity
  8
0
 62
     0
100
AcDbFaceRecord
 10
0.0
 20
0.0
 30
0.0
 70
   128
 71
    -5
 72
    -2
 73
    -3
 74
    -3
  0
VERTEX
  5
35E
330
1C
100
AcDbEntity
  8
0
 62
     0
100
AcDbFaceRecord
 10
0.0
 20
0.0
 30
0.0
 70
   128
 71
   -10
 72
    -7
 73
    -8
 74
    -8
  0
VERTEX
  5
35F
330
1C
100
AcDbEntity
  8
0
 62
     0
100
AcDbFaceRecord
 10
0.0
 20
0.0
 30
0.0
 70
   128
 71
    -3
 72
    -4
 73
    -5
 74
    -5
  0
VERTEX
  5
360
330
1C
100
AcDbEntity
  8
0
 62
     0
100
AcDbFaceRecord
 10
0.0
 20
0.0
 30
0.0
 70
   128
 71
    -8
 72
    -9
 73
   -10
 74
   -10
  0
VERTEX
  5
361
330
1C
100
AcDbEntity
  8
0
 62
     0
100
AcDbFaceRecord
 10
0.0
 20
0.0
 30
0.0
 70
   128
 71
     1
 72
     2
 73
     7
 74
     6
  0
VERTEX
  5
362
330
1C
100
AcDbEntity
  8
0
 62
     0
100
AcDbFaceRecord
 10
0.0
 20
0.0
 30
0.0
 70
   128
 71
     2
 72
     3
 73
     8
 74
     7
  0
VERTEX
  5
363
330
1C
100
AcDbEntity
  8
0
 62
     0
100
AcDbFaceRecord
 10
0.0
 20
0.0
 30
0.0
 70
   128
 71
     3
 72
     4
 73
     9
 74
     8
  0
VERTEX
  5
364
330
1C
100
AcDbEntity
  8
0
 62
     0
100
AcDbFaceRecord
 10
0.0
 20
0.0
 30
0.0
 70
   128
 71
     4
 72
     5
 73
    10
 74
     9
  0
SEQEND
  5
352
330
1C
100
AcDbEntity
  8
STUFEN
  0
LWPOLYLINE
  5
1D
330
5D
100
AcDbEntity
  8
STUFEN
100
AcDbPolyline
 90
        5
 70
     0
 43
0.0
 38
458.3333333333333
 10
55.00073089252702
 20
700.891796123329
 10
925.0006236217947
 20
593.6211710621144
 10
925.0009047384226
 20
874.7375179151666
 10
55.0011859408576
 20
1155.939671655172
 10
55.00073089252702
 20
700.891796123329
  0
POLYLINE
  5
1E
330
5D
100
AcDbEntity
  8
STUFEN
100
AcDbPolyFaceMesh
 66
     1
 10
0.0
 20
0.0
 30
0.0
 70
    64
 71
    10
 72
     8
  0
VERTEX
  5
366
330
1E
100
AcDbEntity
  8
0
100
AcDbVertex
100
AcDbPolyFaceMeshVertex
 10
55.00073089252702
 20
700.891796123329
 30
458.3333333333333
 70
   192
  0
VERTEX
  5
367
330
1E
100
AcDbEntity
  8
0
100
AcDbVertex
100
AcDbPolyFaceMeshVertex
 10
925.0006236217947
 20
593.6211710621144
 30
458.3333333333333
 70
   192
  0
VERTEX
  5
368
330
1E
100
AcDbEntity
  8
0
100
AcDbVertex
100
AcDbPolyFaceMeshVertex
 10
925.0009047384226
 20
874.7375179151666
 30
458.3333333333333
 70
   192
  0
VERTEX
  5
369
330
1E
100
AcDbEntity
  8
0
100
AcDbVertex
100
AcDbPolyFaceMeshVertex
 10
55.0011859408576
 20
1155.939671655172
 30
458.3333333333333
 70
   192
  0
VERTEX
  5
36A
330
1E
100
AcDbEntity
  8
0
100
AcDbVertex
100
AcDbPolyFaceMeshVertex
 10
55.00073089252702
 20
700.891796123329
 30
458.3333333333333
 70
   192
  0
VERTEX
  5
36B
330
1E
100
AcDbEntity
  8
0
100
AcDbVertex
100
AcDbPolyFaceMeshVertex
 10
55.00073089252702
 20
700.891796123329
 30
418.3333333333333
 70
   192
  0
VERTEX
  5
36C
330
1E
100
AcDbEntity
  8
0
100
AcDbVertex
100
AcDbPolyFaceMeshVertex
 10
925.0006236217947
 20
593.6211710621144
 30
418.3333333333333
 70
   192
  0
VERTEX
  5
36D
330
1E
100
AcDbEntity
  8
0
100
AcDbVertex
100
AcDbPolyFaceMeshVertex
 10
925.0009047384226
 20
874.7375179151666
 30
418.3333333333333
 70
   192
  0
VERTEX
  5
36E
330
1E
100
AcDbEntity
  8
0
100
AcDbVertex
100
AcDbPolyFaceMeshVertex
 10
55.0011859408576
 20
1155.939671655172
 30
418.3333333333333
 70
   192
  0
VERTEX
  5
36F
330
1E
100
AcDbEntity
  8
0
100
AcDbVertex
100
AcDbPolyFaceMeshVertex
 10
55.00073089252702
 20
700.891796123329
 30
418.3333333333333
 70
   192
  0
VERTEX
  5
370
330
1E
100
AcDbEntity
  8
0
 62
     0
100
AcDbFaceRecord
 10
0.0
 20
0.0
 30
0.0
 70
   128
 71
    -5
 72
    -2
 73
    -3
 74
    -3
  0
VERTEX
  5
371
330
1E
100
AcDbEntity
  8
0
 62
     0
100
AcDbFaceRecord
 10
0.0
 20
0.0
 30
0.0
 70
   128
 71
   -10
 72
    -7
 73
    -8
 74
    -8
  0
VERTEX
  5
372
330
1E
100
AcDbEntity
  8
0
 62
     0
100
AcDbFaceRecord
 10
0.0
 20
0.0
 30
0.0
 70
   128
 71
    -3
 72
    -4
 73
    -5
 74
    -5
  0
VERTEX
  5
373
330
1E
100
AcDbEntity
  8
0
 62
     0
100
AcDbFaceRecord
 10
0.0
 20
0.0
 30
0.0
 70
   128
 71
    -8
 72
    -9
 73
   -10
 74
   -10
  0
VERTEX
  5
374
330
1E
100
AcDbEntity
  8
0
 62
     0
100
AcDbFaceRecord
 10
0.0
 20
0.0
 30
0.0
 70
   128
 71
     1
 72
     2
 73
     7
 74
     6
  0
VERTEX
  5
375
330
1E
100
AcDbEntity
  8
0
 62
     0
100
AcDbFaceRecord
 10
0.0
 20
0.0
 30
0.0
 70
   128
 71
     2
 72
     3
 73
     8
 74
     7
  0
VERTEX
  5
376
330
1E
100
AcDbEntity
  8
0
 62
     0
100
AcDbFaceRecord
 10
0.0
 20
0.0
 30
0.0
 70
   128
 71
     3
 72
     4
 73
     9
 74
     8
  0
VERTEX
  5
377
330
1E
100
AcDbEntity
  8
0
 62
     0
100
AcDbFaceRecord
 10
0.0
 20
0.0
 30
0.0
 70
   128
 71
     4
 72
     5
 73
    10
 74
     9
  0
SEQEND
  5
365
330
1E
100
AcDbEntity
  8
STUFEN
  0
LWPOLYLINE
  5
1F
330
5D
100
AcDbEntity
  8
STUFEN
100
AcDbPolyline
 90
        7
 70
     0
 43
0.0
 38
611.1111111111111
 10
55.00115441268033
 20
1124.411525915024
 10
925.0008732102454
 20
843.2093721750194
 10
924.9999999999999
 20
1075.0
 10
924.9999999999999
 20
1075.0
 10
932.259540305705
 20
1075.0
 10
55.00174965741518
 20
1719.655665525333
 10
55.00115441268033
 20
1124.411525915024
  0
POLYLINE
  5
20
330
5D
100
AcDbEntity
  8
STUFEN
100
AcDbPolyFaceMesh
 66
     1
 10
0.0
 20
0.0
 30
0.0
 70
    64
 71
    14
 72
    12
  0
VERTEX
  5
379
330
20
100
AcDbEntity
  8
0
100
AcDbVertex
100
AcDbPolyFaceMeshVertex
 10
55.00115441268033
 20
1124.411525915024
 30
611.1111111111111
 70
   192
  0
VERTEX
  5
37A
330
20
100
AcDbEntity
  8
0
100
AcDbVertex
100
AcDbPolyFaceMeshVertex
 10
925.0008732102454
 20
843.2093721750194
 30
611.1111111111111
 70
   192
  0
VERTEX
  5
37B
330
20
100
AcDbEntity
  8
0
100
AcDbVertex
100
AcDbPolyFaceMeshVertex
 10
924.9999999999999
 20
1075.0
 30
611.1111111111111
 70
   192
  0
VERTEX
  5
37C
330
20
100
AcDbEntity
  8
0
100
AcDbVertex
100
AcDbPolyFaceMeshVertex
 10
924.9999999999999
 20
1075.0
 30
611.1111111111111
 70
   192
  0
VERTEX
  5
37D
330
20
100
AcDbEntity
  8
0
100
AcDbVertex
100
AcDbPolyFaceMeshVertex
 10
932.259540305705
 20
1075.0
 30
611.1111111111111
 70
   192
  0
VERTEX
  5
37E
330
20
100
AcDbEntity
  8
0
100
AcDbVertex
100
AcDbPolyFaceMeshVertex
 10
55.00174965741518
 20
1719.655665525333
 30
611.1111111111111
 70
   192
  0
VERTEX
  5
37F
330
20
100
AcDbEntity
  8
0
100
AcDbVertex
100
AcDbPolyFaceMeshVertex
 10
55.00115441268033
 20
1124.411525915024
 30
611.1111111111111
 70
   192
  0
VERTEX
  5
380
330
20
100
AcDbEntity
  8
0
100
AcDbVertex
100
AcDbPolyFaceMeshVertex
 10
55.00115441268033
 20
1124.411525915024
 30
571.1111111111111
 70
   192
  0
VERTEX
  5
381
330
20
100
AcDbEntity
  8
0
100
AcDbVertex
100
AcDbPolyFaceMeshVertex
 10
925.0008732102454
 20
843.2093721750194
 30
571.1111111111111
 70
   192
  0
VERTEX
  5
382
330
20
100
AcDbEntity
  8
0
100
AcDbVertex
100
AcDbPolyFaceMeshVertex
 10
924.9999999999999
 20
1075.0
 30
571.1111111111111
 70
   192
  0
VERTEX
  5
383
330
20
100
AcDbEntity
  8
0
100
AcDbVertex
100
AcDbPolyFaceMeshVertex
 10
924.9999999999999
 20
1075.0
 30
571.1111111111111
 70
   192
  0
VERTEX
  5
384
330
20
100
AcDbEntity
  8
0
100
AcDbVertex
100
AcDbPolyFaceMeshVertex
 10
932.259540305705
 20
1075.0
 30
571.1111111111111
 70
   192
  0
VERTEX
  5
385
330
20
100
AcDbEntity
  8
0
100
AcDbVertex
100
AcDbPolyFaceMeshVertex
 10
55.00174965741518
 20
1719.655665525333
 30
571.1111111111111
 70
   192
  0
VERTEX
  5
386
330
20
100
AcDbEntity
  8
0
100
AcDbVertex
100
AcDbPolyFaceMeshVertex
 10
55.00115441268033
 20
1124.411525915024
 30
571.1111111111111
 70
   192
  0
VERTEX
  5
387
330
20
100
AcDbEntity
  8
0
 62
     0
100
AcDbFaceRecord
 10
0.0
 20
0.0
 30
0.0
 70
   128
 71
    -7
 72
    -2
 73
    -3
 74
    -3
  0
VERTEX
  5
388
330
20
100
AcDbEntity
  8
0
 62
     0
100
AcDbFaceRecord
 10
0.0
 20
0.0
 30
0.0
 70
   128
 71
   -14
 72
    -9
 73
   -10
 74
   -10
  0
VERTEX
  5
389
330
20
100
AcDbEntity
  8
0
 62
     0
100
AcDbFaceRecord
 10
0.0
 20
0.0
 30
0.0
 70
   128
 71
    -7
 72
    -4
 73
    -5
 74
    -5
  0
VERTEX
  5
38A
330
20
100
AcDbEntity
  8
0
 62
     0
100
AcDbFaceRecord
 10
0.0
 20
0.0
 30
0.0
 70
   128
 71
   -14
 72
   -11
 73
   -12
 74
   -12
  0
VERTEX
  5
38B
330
20
100
AcDbEntity
  8
0
 62
     0
100
AcDbFaceRecord
 10
0.0
 20
0.0
 30
0.0
 70
   128
 71
    -5
 72
    -6
 73
    -7
 74
    -7
  0
VERTEX
  5
38C
330
20
100
AcDbEntity
  8
0
 62
     0
100
AcDbFaceRecord
 10
0.0
 20
0.0
 30
0.0
 70
   128
 71
   -12
 72
   -13
 73
   -14
 74
   -14
  0
VERTEX
  5
38D
330
20
100
AcDbEntity
  8
0
 62
     0
100
AcDbFaceRecord
 10
0.0
 20
0.0
 30
0.0
 70
   128
 71
     1
 72
     2
 73
     9
 74
     8
  0
VERTEX
  5
38E
330
20
100
AcDbEntity
  8
0
 62
     0
100
AcDbFaceRecord
 10
0.0
 20
0.0
 30
0.0
 70
   128
 71
     2
 72
     3
 73
    10
 74
     9
  0
VERTEX
  5
38F
330
20
100
AcDbEntity
  8
0
 62
     0
100
AcDbFaceRecord
 10
0.0
 20
0.0
 30
0.0
 70
   128
 71
     3
 72
     4
 73
    11
 74
    10
  0
VERTEX
  5
390
330
20
100
AcDbEntity
  8
0
 62
     0
100
AcDbFaceRecord
 10
0.0
 20
0.0
 30
0.0
 70
   128
 71
     4
 72
     5
 73
    12
 74
    11
  0
VERTEX
  5
391
330
20
100
AcDbEntity
  8
0
 62
     0
100
AcDbFaceRecord
 10
0.0
 20
0.0
 30
0.0
 70
   128
 71
     5
 72
     6
 73
    13
 74
    12
  0
VERTEX
  5
392
330
20
100
AcDbEntity
  8
0
 62
     0
100
AcDbFaceRecord
 10
0.0
 20
0.0
 30
0.0
 70
   128
 71
     6
 72
     7
 73
    14
 74
    13
  0
SEQEND
  5
378
330
20
100
AcDbEntity
  8
STUFEN
  0
LWPOLYLINE
  5
21
330
5D
100
AcDbEntity
  8
STUFEN
100
AcDbPolyline
 90
        8
 70
     0
 43
0.0
 38
763.8888888888889
 10
55.00171242827345
 20
1682.426561023527
 10
925.0010731058488
 20
1043.1047757479
 10
924.9999999999999
 20
1075.0
 10
924.9999999999999
 20
1075.0
 10
1020.343483589262
 20
1075.0
 10
699.7906936287776
 20
1945.0
 10
55.0
 20
1945.0
 10
55.00171242827345
 20
1682.426561023527
  0
POLYLINE
  5
22
330
5D
100
AcDbEntity
  8
STUFEN
100
AcDbPolyFaceMesh
 66
     1
 10
0.0
 20
0.0
 30
0.0
 70
    64
 71
    16
 72
    15
  0
VERTEX
  5
394
330
22
100
AcDbEntity
  8
0
100
AcDbVertex
100
AcDbPolyFaceMeshVertex
 10
55.00171242827345
 20
1682.426561023527
 30
763.8888888888889
 70
   192
  0
VERTEX
  5
395
330
22
100
AcDbEntity
  8
0
100
AcDbVertex
100
AcDbPolyFaceMeshVertex
 10
925.0010731058488
 20
1043.1047757479
 30
763.8888888888889
 70
   192
  0
VERTEX
  5
396
330
22
100
AcDbEntity
  8
0
100
AcDbVertex
100
AcDbPolyFaceMeshVertex
 10
924.9999999999999
 20
1075.0
 30
763.8888888888889
 70
   192
  0
VERTEX
  5
397
330
22
100
AcDbEntity
  8
0
100
AcDbVertex
100
AcDbPolyFaceMeshVertex
 10
924.9999999999999
 20
1075.0
 30
763.8888888888889
 70
   192
  0
VERTEX
  5
398
330
22
100
AcDbEntity
  8
0
100
AcDbVertex
100
AcDbPolyFaceMeshVertex
 10
1020.343483589262
 20
1075.0
 30
763.8888888888889
 70
   192
  0
VERTEX
  5
399
330
22
100
AcDbEntity
  8
0
100
AcDbVertex
100
AcDbPolyFaceMeshVertex
 10
699.7906936287776
 20
1945.0
 30
763.8888888888889
 70
   192
  0
VERTEX
  5
39A
330
22
100
AcDbEntity
  8
0
100
AcDbVertex
100
AcDbPolyFaceMeshVertex
 10
55.0
 20
1945.0
 30
763.8888888888889
 70
   192
  0
VERTEX
  5
39B
330
22
100
AcDbEntity
  8
0
100
AcDbVertex
100
AcDbPolyFaceMeshVertex
 10
55.00171242827345
 20
1682.426561023527
 30
763.8888888888889
 70
   192
  0
VERTEX
  5
39C
330
22
100
AcDbEntity
  8
0
100
AcDbVertex
100
AcDbPolyFaceMeshVertex
 10
55.00171242827345
 20
1682.426561023527
 30
723.8888888888889
 70
   192
  0
VERTEX
  5
39D
330
22
100
AcDbEntity
  8
0
100
AcDbVertex
100
AcDbPolyFaceMeshVertex
 10
925.0010731058488
 20
1043.1047757479
 30
723.8888888888889
 70
   192
  0
VERTEX
  5
39E
330
22
100
AcDbEntity
  8
0
100
AcDbVertex
100
AcDbPolyFaceMeshVertex
 10
924.9999999999999
 20
1075.0
 30
723.8888888888889
 70
   192
  0
VERTEX
  5
39F
330
22
100
AcDbEntity
  8
0
100
AcDbVertex
100
AcDbPolyFaceMeshVertex
 10
924.9999999999999
 20
1075.0
 30
723.8888888888889
 70
   192
  0
VERTEX
  5
3A0
330
22
100
AcDbEntity
  8
0
100
AcDbVertex
100
AcDbPolyFaceMeshVertex
 10
1020.343483589262
 20
1075.0
 30
723.8888888888889
 70
   192
  0
VERTEX
  5
3A1
330
22
100
AcDbEntity
  8
0
100
AcDbVertex
100
AcDbPolyFaceMeshVertex
 10
699.7906936287776
 20
1945.0
 30
723.8888888888889
 70
   192
  0
VERTEX
  5
3A2
330
22
100
AcDbEntity
  8
0
100
AcDbVertex
100
AcDbPolyFaceMeshVertex
 10
55.0
 20
1945.0
 30
723.8888888888889
 70
   192
  0
VERTEX
  5
3A3
330
22
100
AcDbEntity
  8
0
100
AcDbVertex
100
AcDbPolyFaceMeshVertex
 10
55.00171242827345
 20
1682.426561023527
 30
723.8888888888889
 70
   192
  0
VERTEX
  5
3A4
330
22
100
AcDbEntity
  8
0
 62
     0
100
AcDbFaceRecord
 10
0.0
 20
0.0
 30
0.0
 70
   128
 71
    -8
 72
    -2
 73
    -3
 74
    -3
  0
VERTEX
  5
3A5
330
22
100
AcDbEntity
  8
0
 62
     0
100
AcDbFaceRecord
 10
0.0
 20
0.0
 30
0.0
 70
   128
 71
   -16
 72
   -10
 73
   -11
 74
   -11
  0
VERTEX
  5
3A6
330
22
100
AcDbEntity
  8
0
 62
     0
100
AcDbFaceRecord
 10
0.0
 20
0.0
 30
0.0
 70
   128
 71
    -8
 72
    -4
 73
    -5
 74
    -5
  0
VERTEX
  5
3A7
330
22
100
AcDbEntity
  8
0
 62
     0
100
AcDbFaceRecord
 10
0.0
 20
0.0
 30
0.0
 70
   128
 71
   -16
 72
   -12
 73
   -13
 74
   -13
  0
VERTEX
  5
3A8
330
22
100
AcDbEntity
  8
0
 62
     0
100
AcDbFaceRecord
 10
0.0
 20
0.0
 30
0.0
 70
   128
 71
    -8
 72
    -5
 73
    -6
 74
    -6
  0
VERTEX
  5
3A9
330
22
100
AcDbEntity
  8
0
 62
     0
100
AcDbFaceRecord
 10
0.0
 20
0.0
 30
0.0
 70
   128
 71
   -16
 72
   -13
 73
   -14
 74
   -14
  0
VERTEX
  5
3AA
330
22
100
AcDbEntity
  8
0
 62
     0
100
AcDbFaceRecord
 10
0.0
 20
0.0
 30
0.0
 70
   128
 71
    -6
 72
    -7
 73
    -8
 74
    -8
  0
VERTEX
  5
3AB
330
22
100
AcDbEntity
  8
0
 62
     0
100
AcDbFaceRecord
 10
0.0
 20
0.0
 30
0.0
 70
   128
 71
   -14
 72
   -15
 73
   -16
 74
   -16
  0
VERTEX
  5
3AC
330
22
100
AcDbEntity
  8
0
 62
     0
100
AcDbFaceRecord
 10
0.0
 20
0.0
 30
0.0
 70
   128
 71
     1
 72
     2
 73
    10
 74
     9
  0
VERTEX
  5
3AD
330
22
100
AcDbEntity
  8
0
 62
     0
100
AcDbFaceRecord
 10
0.0
 20
0.0
 30
0.0
 70
   128
 71
     2
 72
     3
 73
    11
 74
    10
  0
VERTEX
  5
3AE
330
22
100
AcDbEntity
  8
0
 62
     0
100
AcDbFaceRecord
 10
0.0
 20
0.0
 30
0.0
 70
   128
 71
     3
 72
     4
 73
    12
 74
    11
  0
VERTEX
  5
3AF
330
22
100
AcDbEntity
  8
0
 62
     0
100
AcDbFaceRecord
 10
0.0
 20
0.0
 30
0.0
 70
   128
 71
     4
 72
     5
 73
    13
 74
    12
  0
VERTEX
  5
3B0
330
22
100
AcDbEntity
  8
0
 62
     0
100
AcDbFaceRecord
 10
0.0
 20
0.0
 30
0.0
 70
   128
 71
     5
 72
     6
 73
    14
 74
    13
  0
VERTEX
  5
3B1
330
22
100
AcDbEntity
  8
0
 62
     0
100
AcDbFaceRecord
 10
0.0
 20
0.0
 30
0.0
 70
   128
 71
     6
 72
     7
 73
    15
 74
    14
  0
VERTEX
  5
3B2
330
22
100
AcDbEntity
  8
0
 62
     0
100
AcDbFaceRecord
 10
0.0
 20
0.0
 30
0.0
 70
   128
 71
     7
 72
     8
 73
    16
 74
    15
  0
SEQEND
  5
393
330
22
100
AcDbEntity
  8
STUFEN
  0
LWPOLYLINE
  5
23
330
5D
100
AcDbEntity
  8
STUFEN
100
AcDbPolyline
 90
        5
 70
     0
 43
0.0
 38
916.6666666666666
 10
667.8191305515335
 20
1945.0
 10
988.3719205120181
 20
1075.0
 10
1265.894153476836
 20
1075.0
 10
1131.379055562555
 20
1945.0
 10
667.8191305515335
 20
1945.0
  0
POLYLINE
  5
24
330
5D
100
AcDbEntity
  8
STUFEN
100
AcDbPolyFaceMesh
 66
     1
 10
0.0
 20
0.0
 30
0.0
 70
    64
 71
    10
 72
     8
  0
VERTEX
  5
3B4
330
24
100
AcDbEntity
  8
0
100
AcDbVertex
100
AcDbPolyFaceMeshVertex
 10
667.8191305515335
 20
1945.0
 30
916.6666666666666
 70
   192
  0
VERTEX
  5
3B5
330
24
100
AcDbEntity
  8
0
100
AcDbVertex
100
AcDbPolyFaceMeshVertex
 10
988.3719205120181
 20
1075.0
 30
916.6666666666666
 70
   192
  0
VERTEX
  5
3B6
330
24
100
AcDbEntity
  8
0
100
AcDbVertex
100
AcDbPolyFaceMeshVertex
 10
1265.894153476836
 20
1075.0
 30
916.6666666666666
 70
   192
  0
VERTEX
  5
3B7
330
24
100
AcDbEntity
  8
0
100
AcDbVertex
100
AcDbPolyFaceMeshVertex
 10
1131.379055562555
 20
1945.0
 30
916.6666666666666
 70
   192
  0
VERTEX
  5
3B8
330
24
100
AcDbEntity
  8
0
100
AcDbVertex
100
AcDbPolyFaceMeshVertex
 10
667.8191305515335
 20
1945.0
 30
916.6666666666666
 70
   192
  0
VERTEX
  5
3B9
330
24
100
AcDbEntity
  8
0
100
AcDbVertex
100
AcDbPolyFaceMeshVertex
 10
667.8191305515335
 20
1945.0
 30
876.6666666666666
 70
   192
  0
VERTEX
  5
3BA
330
24
100
AcDbEntity
  8
0
100
AcDbVertex
100
AcDbPolyFaceMeshVertex
 10
988.3719205120181
 20
1075.0
 30
876.6666666666666
 70
   192
  0
VERTEX
  5
3BB
330
24
100
AcDbEntity
  8
0
100
AcDbVertex
100
AcDbPolyFaceMeshVertex
 10
1265.894153476836
 20
1075.0
 30
876.6666666666666
 70
   192
  0
VERTEX
  5
3BC
330
24
100
AcDbEntity
  8
0
100
AcDbVertex
100
AcDbPolyFaceMeshVertex
 10
1131.379055562555
 20
1945.0
 30
876.6666666666666
 70
   192
  0
VERTEX
  5
3BD
330
24
100
AcDbEntity
  8
0
100
AcDbVertex
100
AcDbPolyFaceMeshVertex
 10
667.8191305515335
 20
1945.0
 30
876.6666666666666
 70
   192
  0
VERTEX
  5
3BE
330
24
100
AcDbEntity
  8
0
 62
     0
100
AcDbFaceRecord
 10
0.0
 20
0.0
 30
0.0
 70
   128
 71
    -5
 72
    -2
 73
    -3
 74
    -3
  0
VERTEX
  5
3BF
330
24
100
AcDbEntity
  8
0
 62
     0
100
AcDbFaceRecord
 10
0.0
 20
0.0
 30
0.0
 70
   128
 71
   -10
 72
    -7
 73
    -8
 74
    -8
  0
VERTEX
  5
3C0
330
24
100
AcDbEntity
  8
0
 62
     0
100
AcDbFaceRecord
 10
0.0
 20
0.0
 30
0.0
 70
   128
 71
    -3
 72
    -4
 73
    -5
 74
    -5
  0
VERTEX
  5
3C1
330
24
100
AcDbEntity
  8
0
 62
     0
100
AcDbFaceRecord
 10
0.0
 20
0.0
 30
0.0
 70
   128
 71
    -8
 72
    -9
 73
   -10
 74
   -10
  0
VERTEX
  5
3C2
330
24
100
AcDbEntity
  8
0
 62
     0
100
AcDbFaceRecord
 10
0.0
 20
0.0
 30
0.0
 70
   128
 71
     1
 72
     2
 73
     7
 74
     6
  0
VERTEX
  5
3C3
330
24
100
AcDbEntity
  8
0
 62
     0
100
AcDbFaceRecord
 10
0.0
 20
0.0
 30
0.0
 70
   128
 71
     2
 72
     3
 73
     8
 74
     7
  0
VERTEX
  5
3C4
330
24
100
AcDbEntity
  8
0
 62
     0
100
AcDbFaceRecord
 10
0.0
 20
0.0
 30
0.0
 70
   128
 71
     3
 72
     4
 73
     9
 74
     8
  0
VERTEX
  5
3C5
330
24
100
AcDbEntity
  8
0
 62
     0
100
AcDbFaceRecord
 10
0.0
 20
0.0
 30
0.0
 70
   128
 71
     4
 72
     5
 73
    10
 74
     9
  0
SEQEND
  5
3B3
330
24
100
AcDbEntity
  8
STUFEN
  0
LWPOLYLINE
  5
25
330
5D
100
AcDbEntity
  8
STUFEN
100
AcDbPolyline
 90
        5
 70
     0
 43
0.0
 38
1069.444444444444
 10
1101.022586174137
 20
1945.0
 10
1235.537684088418
 20
1075.0
 10
1560.988636973433
 20
1075.0
 10
1511.830070547376
 20
1945.0
 10
1101.022586174137
 20
1945.0
  0
POLYLINE
  5
26
330
5D
100
AcDbEntity
  8
STUFEN
100
AcDbPolyFaceMesh
 66
     1
 10
0.0
 20
0.0
 30
0.0
 70
    64
 71
    10
 72
     8
  0
VERTEX
  5
3C7
330
26
100
AcDbEntity
  8
0
100
AcDbVertex
100
AcDbPolyFaceMeshVertex
 10
1101.022586174137
 20
1945.0
 30
1069.444444444444
 70
   192
  0
VERTEX
  5
3C8
330
26
100
AcDbEntity
  8
0
100
AcDbVertex
100
AcDbPolyFaceMeshVertex
 10
1235.537684088418
 20
1075.0
 30
1069.444444444444
 70
   192
  0
VERTEX
  5
3C9
330
26
100
AcDbEntity
  8
0
100
AcDbVertex
100
AcDbPolyFaceMeshVertex
 10
1560.988636973433
 20
1075.0
 30
1069.444444444444
 70
   192
  0
VERTEX
  5
3CA
330
26
100
AcDbEntity
  8
0
100
AcDbVertex
100
AcDbPolyFaceMeshVertex
 10
1511.830070547376
 20
1945.0
 30
1069.444444444444
 70
   192
  0
VERTEX
  5
3CB
330
26
100
AcDbEntity
  8
0
100
AcDbVertex
100
AcDbPolyFaceMeshVertex
 10
1101.022586174137
 20
1945.0
 30
1069.444444444444
 70
   192
  0
VERTEX
  5
3CC
330
26
100
AcDbEntity
  8
0
100
AcDbVertex
100
AcDbPolyFaceMeshVertex
 10
1101.022586174137
 20
1945.0
 30
1029.444444444444
 70
   192
  0
VERTEX
  5
3CD
330
26
100
AcDbEntity
  8
0
100
AcDbVertex
100
AcDbPolyFaceMeshVertex
 10
1235.537684088418
 20
1075.0
 30
1029.444444444444
 70
   192
  0
VERTEX
  5
3CE
330
26
100
AcDbEntity
  8
0
100
AcDbVertex
100
AcDbPolyFaceMeshVertex
 10
1560.988636973433
 20
1075.0
 30
1029.444444444444
 70
   192
  0
VERTEX
  5
3CF
330
26
100
AcDbEntity
  8
0
100
AcDbVertex
100
AcDbPolyFaceMeshVertex
 10
1511.830070547376
 20
1945.0
 30
1029.444444444444
 70
   192
  0
VERTEX
  5
3D0
330
26
100
AcDbEntity
  8
0
100
AcDbVertex
100
AcDbPolyFaceMeshVertex
 10
1101.022586174137
 20
1945.0
 30
1029.444444444444
 70
   192
  0
VERTEX
  5
3D1
330
26
100
AcDbEntity
  8
0
 62
     0
100
AcDbFaceRecord
 10
0.0
 20
0.0
 30
0.0
 70
   128
 71
    -5
 72
    -2
 73
    -3
 74
    -3
  0
VERTEX
  5
3D2
330
26
100
AcDbEntity
  8
0
 62
     0
100
AcDbFaceRecord
 10
0.0
 20
0.0
 30
0.0
 70
   128
 71
   -10
 72
    -7
 73
    -8
 74
    -8
  0
VERTEX
  5
3D3
330
26
100
AcDbEntity
  8
0
 62
     0
100
AcDbFaceRecord
 10
0.0
 20
0.0
 30
0.0
 70
   128
 71
    -3
 72
    -4
 73
    -5
 74
    -5
  0
VERTEX
  5
3D4
330
26
100
AcDbEntity
  8
0
 62
     0
100
AcDbFaceRecord
 10
0.0
 20
0.0
 30
0.0
 70
   128
 71
    -8
 72
    -9
 73
   -10
 74
   -10
  0
VERTEX
  5
3D5
330
26
100
AcDbEntity
  8
0
 62
     0
100
AcDbFaceRecord
 10
0.0
 20
0.0
 30
0.0
 70
   128
 71
     1
 72
     2
 73
     7
 74
     6
  0
VERTEX
  5
3D6
330
26
100
AcDbEntity
  8
0
 62
     0
100
AcDbFaceRecord
 10
0.0
 20
0.0
 30
0.0
 70
   128
 71
     2
 72
     3
 73
     8
 74
     7
  0
VERTEX
  5
3D7
330
26
100
AcDbEntity
  8
0
 62
     0
100
AcDbFaceRecord
 10
0.0
 20
0.0
 30
0.0
 70
   128
 71
     3
 72
     4
 73
     9
 74
     8
  0
VERTEX
  5
3D8
330
26
100
AcDbEntity
  8
0
 62
     0
100
AcDbFaceRecord
 10
0.0
 20
0.0
 30
0.0
 70
   128
 71
     4
 72
     5
 73
    10
 74
     9
  0
SEQEND
  5
3C6
330
26
100
AcDbEntity
  8
STUFEN
  0
LWPOLYLINE
  5
27
330
5D
100
AcDbEntity
  8
STUFEN
100
AcDbPolyline
 90
        5
 70
     0
 43
0.0
 38
1222.222222222222
 10
1481.782218013159
 20
1945.0
 10
1530.940784439216
 20
1075.0
 10
1864.832280442308
 20
1075.0
 10
1884.634369156954
 20
1945.0
 10
1481.782218013159
 20
1945.0
  0
POLYLINE
  5
28
330
5D
100
AcDbEntity
  8
STUFEN
100
AcDbPolyFaceMesh
 66
     1
 10
0.0
 20
0.0
 30
0.0
 70
    64
 71
    10
 72
     8
  0
VERTEX
  5
3DA
330
28
100
AcDbEntity
  8
0
100
AcDbVertex
100
AcDbPolyFaceMeshVertex
 10
1481.782218013159
 20
1945.0
 30
1222.222222222222
 70
   192
  0
VERTEX
  5
3DB
330
28
100
AcDbEntity
  8
0
100
AcDbVertex
100
AcDbPolyFaceMeshVertex
 10
1530.940784439216
 20
1075.0
 30
1222.222222222222
 70
   192
  0
VERTEX
  5
3DC
330
28
100
AcDbEntity
  8
0
100
AcDbVertex
100
AcDbPolyFaceMeshVertex
 10
1864.832280442308
 20
1075.0
 30
1222.222222222222
 70
   192
  0
VERTEX
  5
3DD
330
28
100
AcDbEntity
  8
0
100
AcDbVertex
100
AcDbPolyFaceMeshVertex
 10
1884.634369156954
 20
1945.0
 30
1222.222222222222
 70
   192
  0
VERTEX
  5
3DE
330
28
100
AcDbEntity
  8
0
100
AcDbVertex
100
AcDbPolyFaceMeshVertex
 10
1481.782218013159
 20
1945.0
 30
1222.222222222222
 70
   192
  0
VERTEX
  5
3DF
330
28
100
AcDbEntity
  8
0
100
AcDbVertex
100
AcDbPolyFaceMeshVertex
 10
1481.782218013159
 20
1945.0
 30
1182.222222222222
 70
   192
  0
VERTEX
  5
3E0
330
28
100
AcDbEntity
  8
0
100
AcDbVertex
100
AcDbPolyFaceMeshVertex
 10
1530.940784439216
 20
1075.0
 30
1182.222222222222
 70
   192
  0
VERTEX
  5
3E1
330
28
100
AcDbEntity
  8
0
100
AcDbVertex
100
AcDbPolyFaceMeshVertex
 10
1864.832280442308
 20
1075.0
 30
1182.222222222222
 70
   192
  0
VERTEX
  5
3E2
330
28
100
AcDbEntity
  8
0
100
AcDbVertex
100
AcDbPolyFaceMeshVertex
 10
1884.634369156954
 20
1945.0
 30
1182.222222222222
 70
   192
  0
VERTEX
  5
3E3
330
28
100
AcDbEntity
  8
0
100
AcDbVertex
100
AcDbPolyFaceMeshVertex
 10
1481.782218013159
 20
1945.0
 30
1182.222222222222
 70
   192
  0
VERTEX
  5
3E4
330
28
100
AcDbEntity
  8
0
 62
     0
100
AcDbFaceRecord
 10
0.0
 20
0.0
 30
0.0
 70
   128
 71
    -5
 72
    -2
 73
    -3
 74
    -3
  0
VERTEX
  5
3E5
330
28
100
AcDbEntity
  8
0
 62
     0
100
AcDbFaceRecord
 10
0.0
 20
0.0
 30
0.0
 70
   128
 71
   -10
 72
    -7
 73
    -8
 74
    -8
  0
VERTEX
  5
3E6
330
28
100
AcDbEntity
  8
0
 62
     0
100
AcDbFaceRecord
 10
0.0
 20
0.0
 30
0.0
 70
   128
 71
    -3
 72
    -4
 73
    -5
 74
    -5
  0
VERTEX
  5
3E7
330
28
100
AcDbEntity
  8
0
 62
     0
100
AcDbFaceRecord
 10
0.0
 20
0.0
 30
0.0
 70
   128
 71
    -8
 72
    -9
 73
   -10
 74
   -10
  0
VERTEX
  5
3E8
330
28
100
AcDbEntity
  8
0
 62
     0
100
AcDbFaceRecord
 10
0.0
 20
0.0
 30
0.0
 70
   128
 71
     1
 72
     2
 73
     7
 74
     6
  0
VERTEX
  5
3E9
330
28
100
AcDbEntity
  8
0
 62
     0
100
AcDbFaceRecord
 10
0.0
 20
0.0
 30
0.0
 70
   128
 71
     2
 72
     3
 73
     8
 74
     7
  0
VERTEX
  5
3EA
330
28
100
AcDbEntity
  8
0
 62
     0
100
AcDbFaceRecord
 10
0.0
 20
0.0
 30
0.0
 70
   128
 71
     3
 72
     4
 73
     9
 74
     8
  0
VERTEX
  5
3EB
330
28
100
AcDbEntity
  8
0
 62
     0
100
AcDbFaceRecord
 10
0.0
 20
0.0
 30
0.0
 70
   128
 71
     4
 72
     5
 73
    10
 74
     9
  0
SEQEND
  5
3D9
330
28
100
AcDbEntity
  8
STUFEN
  0
LWPOLYLINE
  5
29
330
5D
100
AcDbEntity
  8
STUFEN
100
AcDbPolyline
 90
        5
 70
     0
 43
0.0
 38
1375.0
 10
1854.626599201654
 20
1945.0
 10
1834.824510487008
 20
1075.0
 10
2185.216058411425
 20
1075.0
 10
2242.187906762696
 20
1945.0
 10
1854.626599201654
 20
1945.0
  0
POLYLINE
  5
2A
330
5D
100
AcDbEntity
  8
STUFEN
100
AcDbPolyFaceMesh
 66
     1
 10
0.0
 20
0.0
 30
0.0
 70
    64
 71
    10
 72
     8
  0
VERTEX
  5
3ED
330
2A
100
AcDbEntity
  8
0
100
AcDbVertex
100
AcDbPolyFaceMeshVertex
 10
1854.626599201654
 20
1945.0
 30
1375.0
 70
   192
  0
VERTEX
  5
3EE
330
2A
100
AcDbEntity
  8
0
100
AcDbVertex
100
AcDbPolyFaceMeshVertex
 10
1834.824510487008
 20
1075.0
 30
1375.0
 70
   192
  0
VERTEX
  5
3EF
330
2A
100
AcDbEntity
  8
0
100
AcDbVertex
100
AcDbPolyFaceMeshVertex
 10
2185.216058411425
 20
1075.0
 30
1375.0
 70
   192
  0
VERTEX
  5
3F0
330
2A
100
AcDbEntity
  8
0
100
AcDbVertex
100
AcDbPolyFaceMeshVertex
 10
2242.187906762696
 20
1945.0
 30
1375.0
 70
   192
  0
VERTEX
  5
3F1
330
2A
100
AcDbEntity
  8
0
100
AcDbVertex
100
AcDbPolyFaceMeshVertex
 10
1854.626599201654
 20
1945.0
 30
1375.0
 70
   192
  0
VERTEX
  5
3F2
330
2A
100
AcDbEntity
  8
0
100
AcDbVertex
100
AcDbPolyFaceMeshVertex
 10
1854.626599201654
 20
1945.0
 30
1335.0
 70
   192
  0
VERTEX
  5
3F3
330
2A
100
AcDbEntity
  8
0
100
AcDbVertex
100
AcDbPolyFaceMeshVertex
 10
1834.824510487008
 20
1075.0
 30
1335.0
 70
   192
  0
VERTEX
  5
3F4
330
2A
100
AcDbEntity
  8
0
100
AcDbVertex
100
AcDbPolyFaceMeshVertex
 10
2185.216058411425
 20
1075.0
 30
1335.0
 70
   192
  0
VERTEX
  5
3F5
330
2A
100
AcDbEntity
  8
0
100
AcDbVertex
100
AcDbPolyFaceMeshVertex
 10
2242.187906762696
 20
1945.0
 30
1335.0
 70
   192
  0
VERTEX
  5
3F6
330
2A
100
AcDbEntity
  8
0
100
AcDbVertex
100
AcDbPolyFaceMeshVertex
 10
1854.626599201654
 20
1945.0
 30
1335.0
 70
   192
  0
VERTEX
  5
3F7
330
2A
100
AcDbEntity
  8
0
 62
     0
100
AcDbFaceRecord
 10
0.0
 20
0.0
 30
0.0
 70
   128
 71
    -5
 72
    -2
 73
    -3
 74
    -3
  0
VERTEX
  5
3F8
330
2A
100
AcDbEntity
  8
0
 62
     0
100
AcDbFaceRecord
 10
0.0
 20
0.0
 30
0.0
 70
   128
 71
   -10
 72
    -7
 73
    -8
 74
    -8
  0
VERTEX
  5
3F9
330
2A
100
AcDbEntity
  8
0
 62
     0
100
AcDbFaceRecord
 10
0.0
 20
0.0
 30
0.0
 70
   128
 71
    -3
 72
    -4
 73
    -5
 74
    -5
  0
VERTEX
  5
3FA
330
2A
100
AcDbEntity
  8
0
 62
     0
100
AcDbFaceRecord
 10
0.0
 20
0.0
 30
0.0
 70
   128
 71
    -8
 72
    -9
 73
   -10
 74
   -10
  0
VERTEX
  5
3FB
330
2A
100
AcDbEntity
  8
0
 62
     0
100
AcDbFaceRecord
 10
0.0
 20
0.0
 30
0.0
 70
   128
 71
     1
 72
     2
 73
     7
 74
     6
  0
VERTEX
  5
3FC
330
2A
100
AcDbEntity
  8
0
 62
     0
100
AcDbFaceRecord
 10
0.0
 20
0.0
 30
0.0
 70
   128
 71
     2
 72
     3
 73
     8
 74
     7
  0
VERTEX
  5
3FD
330
2A
100
AcDbEntity
  8
0
 62
     0
100
AcDbFaceRecord
 10
0.0
 20
0.0
 30
0.0
 70
   128
 71
     3
 72
     4
 73
     9
 74
     8
  0
VERTEX
  5
3FE
330
2A
100
AcDbEntity
  8
0
 62
     0
100
AcDbFaceRecord
 10
0.0
 20
0.0
 30
0.0
 70
   128
 71
     4
 72
     5
 73
    10
 74
     9
  0
SEQEND
  5
3EC
330
2A
100
AcDbEntity
  8
STUFEN
  0
LWPOLYLINE
  5
2B
330
5D
100
AcDbEntity
  8
STUFEN
100
AcDbPolyline
 90
        7
 70
     0
 43
0.0
 38
1527.777777777778
 10
2212.123651526112
 20
1945.0
 10
2155.151803174841
 20
1075.0
 10
2475.0
 20
1075.0
 10
2475.0
 20
1075.0
 10
2475.002067426277
 20
1067.424209969353
 10
2628.600853738121
 20
1945.0
 10
2212.123651526112
 20
1945.0
  0
POLYLINE
  5
2C
330
5D
100
AcDbEntity
  8
STUFEN
100
AcDbPolyFaceMesh
 66
     1
 10
0.0
 20
0.0
 30
0.0
 70
    64
 71
    14
 72
    12
  0
VERTEX
  5
400
330
2C
100
AcDbEntity
  8
0
100
AcDbVertex
100
AcDbPolyFaceMeshVertex
 10
2212.123651526112
 20
1945.0
 30
1527.777777777778
 70
   192
  0
VERTEX
  5
401
330
2C
100
AcDbEntity
  8
0
100
AcDbVertex
100
AcDbPolyFaceMeshVertex
 10
2155.151803174841
 20
1075.0
 30
1527.777777777778
 70
   192
  0
VERTEX
  5
402
330
2C
100
AcDbEntity
  8
0
100
AcDbVertex
100
AcDbPolyFaceMeshVertex
 10
2475.0
 20
1075.0
 30
1527.777777777778
 70
   192
  0
VERTEX
  5
403
330
2C
100
AcDbEntity
  8
0
100
AcDbVertex
100
AcDbPolyFaceMeshVertex
 10
2475.0
 20
1075.0
 30
1527.777777777778
 70
   192
  0
VERTEX
  5
404
330
2C
100
AcDbEntity
  8
0
100
AcDbVertex
100
AcDbPolyFaceMeshVertex
 10
2475.002067426277
 20
1067.424209969353
 30
1527.777777777778
 70
   192
  0
VERTEX
  5
405
330
2C
100
AcDbEntity
  8
0
100
AcDbVertex
100
AcDbPolyFaceMeshVertex
 10
2628.600853738121
 20
1945.0
 30
1527.777777777778
 70
   192
  0
VERTEX
  5
406
330
2C
100
AcDbEntity
  8
0
100
AcDbVertex
100
AcDbPolyFaceMeshVertex
 10
2212.123651526112
 20
1945.0
 30
1527.777777777778
 70
   192
  0
VERTEX
  5
407
330
2C
100
AcDbEntity
  8
0
100
AcDbVertex
100
AcDbPolyFaceMeshVertex
 10
2212.123651526112
 20
1945.0
 30
1487.777777777778
 70
   192
  0
VERTEX
  5
408
330
2C
100
AcDbEntity
  8
0
100
AcDbVertex
100
AcDbPolyFaceMeshVertex
 10
2155.151803174841
 20
1075.0
 30
1487.777777777778
 70
   192
  0
VERTEX
  5
409
330
2C
100
AcDbEntity
  8
0
100
AcDbVertex
100
AcDbPolyFaceMeshVertex
 10
2475.0
 20
1075.0
 30
1487.777777777778
 70
   192
  0
VERTEX
  5
40A
330
2C
100
AcDbEntity
  8
0
100
AcDbVertex
100
AcDbPolyFaceMeshVertex
 10
2475.0
 20
1075.0
 30
1487.777777777778
 70
   192
  0
VERTEX
  5
40B
330
2C
100
AcDbEntity
  8
0
100
AcDbVertex
100
AcDbPolyFaceMeshVertex
 10
2475.002067426277
 20
1067.424209969353
 30
1487.777777777778
 70
   192
  0
VERTEX
  5
40C
330
2C
100
AcDbEntity
  8
0
100
AcDbVertex
100
AcDbPolyFaceMeshVertex
 10
2628.600853738121
 20
1945.0
 30
1487.777777777778
 70
   192
  0
VERTEX
  5
40D
330
2C
100
AcDbEntity
  8
0
100
AcDbVertex
100
AcDbPolyFaceMeshVertex
 10
2212.123651526112
 20
1945.0
 30
1487.777777777778
 70
   192
  0
VERTEX
  5
40E
330
2C
100
AcDbEntity
  8
0
 62
     0
100
AcDbFaceRecord
 10
0.0
 20
0.0
 30
0.0
 70
   128
 71
    -7
 72
    -2
 73
    -3
 74
    -3
  0
VERTEX
  5
40F
330
2C
100
AcDbEntity
  8
0
 62
     0
100
AcDbFaceRecord
 10
0.0
 20
0.0
 30
0.0
 70
   128
 71
   -14
 72
    -9
 73
   -10
 74
   -10
  0
VERTEX
  5
410
330
2C
100
AcDbEntity
  8
0
 62
     0
100
AcDbFaceRecord
 10
0.0
 20
0.0
 30
0.0
 70
   128
 71
    -4
 72
    -5
 73
    -6
 74
    -6
  0
VERTEX
  5
411
330
2C
100
AcDbEntity
  8
0
 62
     0
100
AcDbFaceRecord
 10
0.0
 20
0.0
 30
0.0
 70
   128
 71
   -11
 72
   -12
 73
   -13
 74
   -13
  0
VERTEX
  5
412
330
2C
100
AcDbEntity
  8
0
 62
     0
100
AcDbFaceRecord
 10
0.0
 20
0.0
 30
0.0
 70
   128
 71
    -6
 72
    -7
 73
    -4
 74
    -4
  0
VERTEX
  5
413
330
2C
100
AcDbEntity
  8
0
 62
     0
100
AcDbFaceRecord
 10
0.0
 20
0.0
 30
0.0
 70
   128
 71
   -13
 72
   -14
 73
   -11
 74
   -11
  0
VERTEX
  5
414
330
2C
100
AcDbEntity
  8
0
 62
     0
100
AcDbFaceRecord
 10
0.0
 20
0.0
 30
0.0
 70
   128
 71
     1
 72
     2
 73
     9
 74
     8
  0
VERTEX
  5
415
330
2C
100
AcDbEntity
  8
0
 62
     0
100
AcDbFaceRecord
 10
0.0
 20
0.0
 30
0.0
 70
   128
 71
     2
 72
     3
 73
    10
 74
     9
  0
VERTEX
  5
416
330
2C
100
AcDbEntity
  8
0
 62
     0
100
AcDbFaceRecord
 10
0.0
 20
0.0
 30
0.0
 70
   128
 71
     3
 72
     4
 73
    11
 74
    10
  0
VERTEX
  5
417
330
2C
100
AcDbEntity
  8
0
 62
     0
100
AcDbFaceRecord
 10
0.0
 20
0.0
 30
0.0
 70
   128
 71
     4
 72
     5
 73
    12
 74
    11
  0
VERTEX
  5
418
330
2C
100
AcDbEntity
  8
0
 62
     0
100
AcDbFaceRecord
 10
0.0
 20
0.0
 30
0.0
 70
   128
 71
     5
 72
     6
 73
    13
 74
    12
  0
VERTEX
  5
419
330
2C
100
AcDbEntity
  8
0
 62
     0
100
AcDbFaceRecord
 10
0.0
 20
0.0
 30
0.0
 70
   128
 71
     6
 72
     7
 73
    14
 74
    13
  0
SEQEND
  5
3FF
330
2C
100
AcDbEntity
  8
STUFEN
  0
LWPOLYLINE
  5
2D
330
5D
100
AcDbEntity
  8
STUFEN
100
AcDbPolyline
 90
        8
 70
     0
 43
0.0
 38
1680.555555555555
 10
2598.144807300794
 20
1945.0
 10
2445.871982993919
 20
1075.0
 10
2475.0
 20
1075.0
 10
2475.0
 20
1075.0
 10
2475.002028201752
 20
1028.19972389091
 10
3345.001791677359
 20
1761.675567360185
 10
3345.0
 20
1945.0
 10
2598.144807300794
 20
1945.0
  0
POLYLINE
  5
2E
330
5D
100
AcDbEntity
  8
STUFEN
100
AcDbPolyFaceMesh
 66
     1
 10
0.0
 20
0.0
 30
0.0
 70
    64
 71
    16
 72
    15
  0
VERTEX
  5
41B
330
2E
100
AcDbEntity
  8
0
100
AcDbVertex
100
AcDbPolyFaceMeshVertex
 10
2598.144807300794
 20
1945.0
 30
1680.555555555555
 70
   192
  0
VERTEX
  5
41C
330
2E
100
AcDbEntity
  8
0
100
AcDbVertex
100
AcDbPolyFaceMeshVertex
 10
2445.871982993919
 20
1075.0
 30
1680.555555555555
 70
   192
  0
VERTEX
  5
41D
330
2E
100
AcDbEntity
  8
0
100
AcDbVertex
100
AcDbPolyFaceMeshVertex
 10
2475.0
 20
1075.0
 30
1680.555555555555
 70
   192
  0
VERTEX
  5
41E
330
2E
100
AcDbEntity
  8
0
100
AcDbVertex
100
AcDbPolyFaceMeshVertex
 10
2475.0
 20
1075.0
 30
1680.555555555555
 70
   192
  0
VERTEX
  5
41F
330
2E
100
AcDbEntity
  8
0
100
AcDbVertex
100
AcDbPolyFaceMeshVertex
 10
2475.002028201752
 20
1028.19972389091
 30
1680.555555555555
 70
   192
  0
VERTEX
  5
420
330
2E
100
AcDbEntity
  8
0
100
AcDbVertex
100
AcDbPolyFaceMeshVertex
 10
3345.001791677359
 20
1761.675567360185
 30
1680.555555555555
 70
   192
  0
VERTEX
  5
421
330
2E
100
AcDbEntity
  8
0
100
AcDbVertex
100
AcDbPolyFaceMeshVertex
 10
3345.0
 20
1945.0
 30
1680.555555555555
 70
   192
  0
VERTEX
  5
422
330
2E
100
AcDbEntity
  8
0
100
AcDbVertex
100
AcDbPolyFaceMeshVertex
 10
2598.144807300794
 20
1945.0
 30
1680.555555555555
 70
   192
  0
VERTEX
  5
423
330
2E
100
AcDbEntity
  8
0
100
AcDbVertex
100
AcDbPolyFaceMeshVertex
 10
2598.144807300794
 20
1945.0
 30
1640.555555555555
 70
   192
  0
VERTEX
  5
424
330
2E
100
AcDbEntity
  8
0
100
AcDbVertex
100
AcDbPolyFaceMeshVertex
 10
2445.871982993919
 20
1075.0
 30
1640.555555555555
 70
   192
  0
VERTEX
  5
425
330
2E
100
AcDbEntity
  8
0
100
AcDbVertex
100
AcDbPolyFaceMeshVertex
 10
2475.0
 20
1075.0
 30
1640.555555555555
 70
   192
  0
VERTEX
  5
426
330
2E
100
AcDbEntity
  8
0
100
AcDbVertex
100
AcDbPolyFaceMeshVertex
 10
2475.0
 20
1075.0
 30
1640.555555555555
 70
   192
  0
VERTEX
  5
427
330
2E
100
AcDbEntity
  8
0
100
AcDbVertex
100
AcDbPolyFaceMeshVertex
 10
2475.002028201752
 20
1028.19972389091
 30
1640.555555555555
 70
   192
  0
VERTEX
  5
428
330
2E
100
AcDbEntity
  8
0
100
AcDbVertex
100
AcDbPolyFaceMeshVertex
 10
3345.001791677359
 20
1761.675567360185
 30
1640.555555555555
 70
   192
  0
VERTEX
  5
429
330
2E
100
AcDbEntity
  8
0
100
AcDbVertex
100
AcDbPolyFaceMeshVertex
 10
3345.0
 20
1945.0
 30
1640.555555555555
 70
   192
  0
VERTEX
  5
42A
330
2E
100
AcDbEntity
  8
0
100
AcDbVertex
100
AcDbPolyFaceMeshVertex
 10
2598.144807300794
 20
1945.0
 30
1640.555555555555
 70
   192
  0
VERTEX
  5
42B
330
2E
100
AcDbEntity
  8
0
 62
     0
100
AcDbFaceRecord
 10
0.0
 20
0.0
 30
0.0
 70
   128
 71
    -8
 72
    -2
 73
    -3
 74
    -3
  0
VERTEX
  5
42C
330
2E
100
AcDbEntity
  8
0
 62
     0
100
AcDbFaceRecord
 10
0.0
 20
0.0
 30
0.0
 70
   128
 71
   -16
 72
   -10
 73
   -11
 74
   -11
  0
VERTEX
  5
42D
330
2E
100
AcDbEntity
  8
0
 62
     0
100
AcDbFaceRecord
 10
0.0
 20
0.0
 30
0.0
 70
   128
 71
    -8
 72
    -4
 73
    -5
 74
    -5
  0
VERTEX
  5
42E
330
2E
100
AcDbEntity
  8
0
 62
     0
100
AcDbFaceRecord
 10
0.0
 20
0.0
 30
0.0
 70
   128
 71
   -16
 72
   -12
 73
   -13
 74
   -13
  0
VERTEX
  5
42F
330
2E
100
AcDbEntity
  8
0
 62
     0
100
AcDbFaceRecord
 10
0.0
 20
0.0
 30
0.0
 70
   128
 71
    -8
 72
    -5
 73
    -6
 74
    -6
  0
VERTEX
  5
430
330
2E
100
AcDbEntity
  8
0
 62
     0
100
AcDbFaceRecord
 10
0.0
 20
0.0
 30
0.0
 70
   128
 71
   -16
 72
   -13
 73
   -14
 74
   -14
  0
VERTEX
  5
431
330
2E
100
AcDbEntity
  8
0
 62
     0
100
AcDbFaceRecord
 10
0.0
 20
0.0
 30
0.0
 70
   128
 71
    -6
 72
    -7
 73
    -8
 74
    -8
  0
VERTEX
  5
432
330
2E
100
AcDbEntity
  8
0
 62
     0
100
AcDbFaceRecord
 10
0.0
 20
0.0
 30
0.0
 70
   128
 71
   -14
 72
   -15
 73
   -16
 74
   -16
  0
VERTEX
  5
433
330
2E
100
AcDbEntity
  8
0
 62
     0
100
AcDbFaceRecord
 10
0.0
 20
0.0
 30
0.0
 70
   128
 71
     1
 72
     2
 73
    10
 74
     9
  0
VERTEX
  5
434
330
2E
100
AcDbEntity
  8
0
 62
     0
100
AcDbFaceRecord
 10
0.0
 20
0.0
 30
0.0
 70
   128
 71
     2
 72
     3
 73
    11
 74
    10
  0
VERTEX
  5
435
330
2E
100
AcDbEntity
  8
0
 62
     0
100
AcDbFaceRecord
 10
0.0
 20
0.0
 30
0.0
 70
   128
 71
     3
 72
     4
 73
    12
 74
    11
  0
VERTEX
  5
436
330
2E
100
AcDbEntity
  8
0
 62
     0
100
AcDbFaceRecord
 10
0.0
 20
0.0
 30
0.0
 70
   128
 71
     4
 72
     5
 73
    13
 74
    12
  0
VERTEX
  5
437
330
2E
100
AcDbEntity
  8
0
 62
     0
100
AcDbFaceRecord
 10
0.0
 20
0.0
 30
0.0
 70
   128
 71
     5
 72
     6
 73
    14
 74
    13
  0
VERTEX
  5
438
330
2E
100
AcDbEntity
  8
0
 62
     0
100
AcDbFaceRecord
 10
0.0
 20
0.0
 30
0.0
 70
   128
 71
     6
 72
     7
 73
    15
 74
    14
  0
VERTEX
  5
439
330
2E
100
AcDbEntity
  8
0
 62
     0
100
AcDbFaceRecord
 10
0.0
 20
0.0
 30
0.0
 70
   128
 71
     7
 72
     8
 73
    16
 74
    15
  0
SEQEND
  5
41A
330
2E
100
AcDbEntity
  8
STUFEN
  0
LWPOLYLINE
  5
2F
330
5D
100
AcDbEntity
  8
STUFEN
100
AcDbPolyline
 90
        5
 70
     0
 43
0.0
 38
1833.333333333333
 10
3345.001830916433
 20
1800.914602634338
 10
2475.002067440827
 20
1067.438759165064
 10
2475.001881772245
 20
881.7703632682852
 10
3345.001151378656
 20
1121.377504356306
 10
3345.001830916433
 20
1800.914602634338
  0
POLYLINE
  5
30
330
5D
100
AcDbEntity
  8
STUFEN
100
AcDbPolyFaceMesh
 66
     1
 10
0.0
 20
0.0
 30
0.0
 70
    64
 71
    10
 72
     8
  0
VERTEX
  5
43B
330
30
100
AcDbEntity
  8
0
100
AcDbVertex
100
AcDbPolyFaceMeshVertex
 10
3345.001830916433
 20
1800.914602634338
 30
1833.333333333333
 70
   192
  0
VERTEX
  5
43C
330
30
100
AcDbEntity
  8
0
100
AcDbVertex
100
AcDbPolyFaceMeshVertex
 10
2475.002067440827
 20
1067.438759165064
 30
1833.333333333333
 70
   192
  0
VERTEX
  5
43D
330
30
100
AcDbEntity
  8
0
100
AcDbVertex
100
AcDbPolyFaceMeshVertex
 10
2475.001881772245
 20
881.7703632682852
 30
1833.333333333333
 70
   192
  0
VERTEX
  5
43E
330
30
100
AcDbEntity
  8
0
100
AcDbVertex
100
AcDbPolyFaceMeshVertex
 10
3345.001151378656
 20
1121.377504356306
 30
1833.333333333333
 70
   192
  0
VERTEX
  5
43F
330
30
100
AcDbEntity
  8
0
100
AcDbVertex
100
AcDbPolyFaceMeshVertex
 10
3345.001830916433
 20
1800.914602634338
 30
1833.333333333333
 70
   192
  0
VERTEX
  5
440
330
30
100
AcDbEntity
  8
0
100
AcDbVertex
100
AcDbPolyFaceMeshVertex
 10
3345.001830916433
 20
1800.914602634338
 30
1793.333333333333
 70
   192
  0
VERTEX
  5
441
330
30
100
AcDbEntity
  8
0
100
AcDbVertex
100
AcDbPolyFaceMeshVertex
 10
2475.002067440827
 20
1067.438759165064
 30
1793.333333333333
 70
   192
  0
VERTEX
  5
442
330
30
100
AcDbEntity
  8
0
100
AcDbVertex
100
AcDbPolyFaceMeshVertex
 10
2475.001881772245
 20
881.7703632682852
 30
1793.333333333333
 70
   192
  0
VERTEX
  5
443
330
30
100
AcDbEntity
  8
0
100
AcDbVertex
100
AcDbPolyFaceMeshVertex
 10
3345.001151378656
 20
1121.377504356306
 30
1793.333333333333
 70
   192
  0
VERTEX
  5
444
330
30
100
AcDbEntity
  8
0
100
AcDbVertex
100
AcDbPolyFaceMeshVertex
 10
3345.001830916433
 20
1800.914602634338
 30
1793.333333333333
 70
   192
  0
VERTEX
  5
445
330
30
100
AcDbEntity
  8
0
 62
     0
100
AcDbFaceRecord
 10
0.0
 20
0.0
 30
0.0
 70
   128
 71
    -5
 72
    -2
 73
    -3
 74
    -3
  0
VERTEX
  5
446
330
30
100
AcDbEntity
  8
0
 62
     0
100
AcDbFaceRecord
 10
0.0
 20
0.0
 30
0.0
 70
   128
 71
   -10
 72
    -7
 73
    -8
 74
    -8
  0
VERTEX
  5
447
330
30
100
AcDbEntity
  8
0
 62
     0
100
AcDbFaceRecord
 10
0.0
 20
0.0
 30
0.0
 70
   128
 71
    -3
 72
    -4
 73
    -5
 74
    -5
  0
VERTEX
  5
448
330
30
100
AcDbEntity
  8
0
 62
     0
100
AcDbFaceRecord
 10
0.0
 20
0.0
 30
0.0
 70
   128
 71
    -8
 72
    -9
 73
   -10
 74
   -10
  0
VERTEX
  5
449
330
30
100
AcDbEntity
  8
0
 62
     0
100
AcDbFaceRecord
 10
0.0
 20
0.0
 30
0.0
 70
   128
 71
     1
 72
     2
 73
     7
 74
     6
  0
VERTEX
  5
44A
330
30
100
AcDbEntity
  8
0
 62
     0
100
AcDbFaceRecord
 10
0.0
 20
0.0
 30
0.0
 70
   128
 71
     2
 72
     3
 73
     8
 74
     7
  0
VERTEX
  5
44B
330
30
100
AcDbEntity
  8
0
 62
     0
100
AcDbFaceRecord
 10
0.0
 20
0.0
 30
0.0
 70
   128
 71
     3
 72
     4
 73
     9
 74
     8
  0
VERTEX
  5
44C
330
30
100
AcDbEntity
  8
0
 62
     0
100
AcDbFaceRecord
 10
0.0
 20
0.0
 30
0.0
 70
   128
 71
     4
 72
     5
 73
    10
 74
     9
  0
SEQEND
  5
43A
330
30
100
AcDbEntity
  8
STUFEN
  0
LWPOLYLINE
  5
31
330
5D
100
AcDbEntity
  8
STUFEN
100
AcDbPolyline
 90
        5
 70
     0
 43
0.0
 38
1986.111111111111
 10
3345.001182495668
 20
1152.494485260527
 10
2475.001912889257
 20
912.887344172507
 10
2475.001667270286
 20
667.2686186576926
 10
3345.000697269317
 20
667.2686195276916
 10
3345.001182495668
 20
1152.494485260527
  0
POLYLINE
  5
32
330
5D
100
AcDbEntity
  8
STUFEN
100
AcDbPolyFaceMesh
 66
     1
 10
0.0
 20
0.0
 30
0.0
 70
    64
 71
    10
 72
     8
  0
VERTEX
  5
44E
330
32
100
AcDbEntity
  8
0
100
AcDbVertex
100
AcDbPolyFaceMeshVertex
 10
3345.001182495668
 20
1152.494485260527
 30
1986.111111111111
 70
   192
  0
VERTEX
  5
44F
330
32
100
AcDbEntity
  8
0
100
AcDbVertex
100
AcDbPolyFaceMeshVertex
 10
2475.001912889257
 20
912.887344172507
 30
1986.111111111111
 70
   192
  0
VERTEX
  5
450
330
32
100
AcDbEntity
  8
0
100
AcDbVertex
100
AcDbPolyFaceMeshVertex
 10
2475.001667270286
 20
667.2686186576926
 30
1986.111111111111
 70
   192
  0
VERTEX
  5
451
330
32
100
AcDbEntity
  8
0
100
AcDbVertex
100
AcDbPolyFaceMeshVertex
 10
3345.000697269317
 20
667.2686195276916
 30
1986.111111111111
 70
   192
  0
VERTEX
  5
452
330
32
100
AcDbEntity
  8
0
100
AcDbVertex
100
AcDbPolyFaceMeshVertex
 10
3345.001182495668
 20
1152.494485260527
 30
1986.111111111111
 70
   192
  0
VERTEX
  5
453
330
32
100
AcDbEntity
  8
0
100
AcDbVertex
100
AcDbPolyFaceMeshVertex
 10
3345.001182495668
 20
1152.494485260527
 30
1946.111111111111
 70
   192
  0
VERTEX
  5
454
330
32
100
AcDbEntity
  8
0
100
AcDbVertex
100
AcDbPolyFaceMeshVertex
 10
2475.001912889257
 20
912.887344172507
 30
1946.111111111111
 70
   192
  0
VERTEX
  5
455
330
32
100
AcDbEntity
  8
0
100
AcDbVertex
100
AcDbPolyFaceMeshVertex
 10
2475.001667270286
 20
667.2686186576926
 30
1946.111111111111
 70
   192
  0
VERTEX
  5
456
330
32
100
AcDbEntity
  8
0
100
AcDbVertex
100
AcDbPolyFaceMeshVertex
 10
3345.000697269317
 20
667.2686195276916
 30
1946.111111111111
 70
   192
  0
VERTEX
  5
457
330
32
100
AcDbEntity
  8
0
100
AcDbVertex
100
AcDbPolyFaceMeshVertex
 10
3345.001182495668
 20
1152.494485260527
 30
1946.111111111111
 70
   192
  0
VERTEX
  5
458
330
32
100
AcDbEntity
  8
0
 62
     0
100
AcDbFaceRecord
 10
0.0
 20
0.0
 30
0.0
 70
   128
 71
    -5
 72
    -2
 73
    -3
 74
    -3
  0
VERTEX
  5
459
330
32
100
AcDbEntity
  8
0
 62
     0
100
AcDbFaceRecord
 10
0.0
 20
0.0
 30
0.0
 70
   128
 71
   -10
 72
    -7
 73
    -8
 74
    -8
  0
VERTEX
  5
45A
330
32
100
AcDbEntity
  8
0
 62
     0
100
AcDbFaceRecord
 10
0.0
 20
0.0
 30
0.0
 70
   128
 71
    -3
 72
    -4
 73
    -5
 74
    -5
  0
VERTEX
  5
45B
330
32
100
AcDbEntity
  8
0
 62
     0
100
AcDbFaceRecord
 10
0.0
 20
0.0
 30
0.0
 70
   128
 71
    -8
 72
    -9
 73
   -10
 74
   -10
  0
VERTEX
  5
45C
330
32
100
AcDbEntity
  8
0
 62
     0
100
AcDbFaceRecord
 10
0.0
 20
0.0
 30
0.0
 70
   128
 71
     1
 72
     2
 73
     7
 74
     6
  0
VERTEX
  5
45D
330
32
100
AcDbEntity
  8
0
 62
     0
100
AcDbFaceRecord
 10
0.0
 20
0.0
 30
0.0
 70
   128
 71
     2
 72
     3
 73
     8
 74
     7
  0
VERTEX
  5
45E
330
32
100
AcDbEntity
  8
0
 62
     0
100
AcDbFaceRecord
 10
0.0
 20
0.0
 30
0.0
 70
   128
 71
     3
 72
     4
 73
     9
 74
     8
  0
VERTEX
  5
45F
330
32
100
AcDbEntity
  8
0
 62
     0
100
AcDbFaceRecord
 10
0.0
 20
0.0
 30
0.0
 70
   128
 71
     4
 72
     5
 73
    10
 74
     9
  0
SEQEND
  5
44D
330
32
100
AcDbEntity
  8
STUFEN
  0
LWPOLYLINE
  5
33
330
5D
100
AcDbEntity
  8
STUFEN
100
AcDbPolyline
 90
        5
 70
     0
 43
0.0
 38
2138.888888888889
 10
3345.000727269347
 20
697.2686195276917
 10
2475.001697270316
 20
697.2686186576926
 10
2475.001327716916
 20
327.7155882267782
 10
3345.000357715947
 20
327.7155890967772
 10
3345.000727269347
 20
697.2686195276917
  0
POLYLINE
  5
34
330
5D
100
AcDbEntity
  8
STUFEN
100
AcDbPolyFaceMesh
 66
     1
 10
0.0
 20
0.0
 30
0.0
 70
    64
 71
    10
 72
     8
  0
VERTEX
  5
461
330
34
100
AcDbEntity
  8
0
100
AcDbVertex
100
AcDbPolyFaceMeshVertex
 10
3345.000727269347
 20
697.2686195276917
 30
2138.888888888889
 70
   192
  0
VERTEX
  5
462
330
34
100
AcDbEntity
  8
0
100
AcDbVertex
100
AcDbPolyFaceMeshVertex
 10
2475.001697270316
 20
697.2686186576926
 30
2138.888888888889
 70
   192
  0
VERTEX
  5
463
330
34
100
AcDbEntity
  8
0
100
AcDbVertex
100
AcDbPolyFaceMeshVertex
 10
2475.001327716916
 20
327.7155882267782
 30
2138.888888888889
 70
   192
  0
VERTEX
  5
464
330
34
100
AcDbEntity
  8
0
100
AcDbVertex
100
AcDbPolyFaceMeshVertex
 10
3345.000357715947
 20
327.7155890967772
 30
2138.888888888889
 70
   192
  0
VERTEX
  5
465
330
34
100
AcDbEntity
  8
0
100
AcDbVertex
100
AcDbPolyFaceMeshVertex
 10
3345.000727269347
 20
697.2686195276917
 30
2138.888888888889
 70
   192
  0
VERTEX
  5
466
330
34
100
AcDbEntity
  8
0
100
AcDbVertex
100
AcDbPolyFaceMeshVertex
 10
3345.000727269347
 20
697.2686195276917
 30
2098.888888888889
 70
   192
  0
VERTEX
  5
467
330
34
100
AcDbEntity
  8
0
100
AcDbVertex
100
AcDbPolyFaceMeshVertex
 10
2475.001697270316
 20
697.2686186576926
 30
2098.888888888889
 70
   192
  0
VERTEX
  5
468
330
34
100
AcDbEntity
  8
0
100
AcDbVertex
100
AcDbPolyFaceMeshVertex
 10
2475.001327716916
 20
327.7155882267782
 30
2098.888888888889
 70
   192
  0
VERTEX
  5
469
330
34
100
AcDbEntity
  8
0
100
AcDbVertex
100
AcDbPolyFaceMeshVertex
 10
3345.000357715947
 20
327.7155890967772
 30
2098.888888888889
 70
   192
  0
VERTEX
  5
46A
330
34
100
AcDbEntity
  8
0
100
AcDbVertex
100
AcDbPolyFaceMeshVertex
 10
3345.000727269347
 20
697.2686195276917
 30
2098.888888888889
 70
   192
  0
VERTEX
  5
46B
330
34
100
AcDbEntity
  8
0
 62
     0
100
AcDbFaceRecord
 10
0.0
 20
0.0
 30
0.0
 70
   128
 71
    -5
 72
    -2
 73
    -3
 74
    -3
  0
VERTEX
  5
46C
330
34
100
AcDbEntity
  8
0
 62
     0
100
AcDbFaceRecord
 10
0.0
 20
0.0
 30
0.0
 70
   128
 71
   -10
 72
    -7
 73
    -8
 74
    -8
  0
VERTEX
  5
46D
330
34
100
AcDbEntity
  8
0
 62
     0
100
AcDbFaceRecord
 10
0.0
 20
0.0
 30
0.0
 70
   128
 71
    -3
 72
    -4
 73
    -5
 74
    -5
  0
VERTEX
  5
46E
330
34
100
AcDbEntity
  8
0
 62
     0
100
AcDbFaceRecord
 10
0.0
 20
0.0
 30
0.0
 70
   128
 71
    -8
 72
    -9
 73
   -10
 74
   -10
  0
VERTEX
  5
46F
330
34
100
AcDbEntity
  8
0
 62
     0
100
AcDbFaceRecord
 10
0.0
 20
0.0
 30
0.0
 70
   128
 71
     1
 72
     2
 73
     7
 74
     6
  0
VERTEX
  5
470
330
34
100
AcDbEntity
  8
0
 62
     0
100
AcDbFaceRecord
 10
0.0
 20
0.0
 30
0.0
 70
   128
 71
     2
 72
     3
 73
     8
 74
     7
  0
VERTEX
  5
471
330
34
100
AcDbEntity
  8
0
 62
     0
100
AcDbFaceRecord
 10
0.0
 20
0.0
 30
0.0
 70
   128
 71
     3
 72
     4
 73
     9
 74
     8
  0
VERTEX
  5
472
330
34
100
AcDbEntity
  8
0
 62
     0
100
AcDbFaceRecord
 10
0.0
 20
0.0
 30
0.0
 70
   128
 71
     4
 72
     5
 73
    10
 74
     9
  0
SEQEND
  5
460
330
34
100
AcDbEntity
  8
STUFEN
  0
LWPOLYLINE
  5
35
330
5D
100
AcDbEntity
  8
STUFEN
100
AcDbPolyline
 90
        5
 70
     0
 43
0.0
 38
2291.666666666667
 10
3345.000387715977
 20
357.7155890967772
 10
2475.001357716946
 20
357.7155882267782
 10
2475.000988163546
 20
-11.83744220413634
 10
3345.000018162577
 20
-11.83744133413731
 10
3345.000387715977
 20
357.7155890967772
  0
POLYLINE
  5
36
330
5D
100
AcDbEntity
  8
STUFEN
100
AcDbPolyFaceMesh
 66
     1
 10
0.0
 20
0.0
 30
0.0
 70
    64
 71
    10
 72
     8
  0
VERTEX
  5
474
330
36
100
AcDbEntity
  8
0
100
AcDbVertex
100
AcDbPolyFaceMeshVertex
 10
3345.000387715977
 20
357.7155890967772
 30
2291.666666666667
 70
   192
  0
VERTEX
  5
475
330
36
100
AcDbEntity
  8
0
100
AcDbVertex
100
AcDbPolyFaceMeshVertex
 10
2475.001357716946
 20
357.7155882267782
 30
2291.666666666667
 70
   192
  0
VERTEX
  5
476
330
36
100
AcDbEntity
  8
0
100
AcDbVertex
100
AcDbPolyFaceMeshVertex
 10
2475.000988163546
 20
-11.83744220413634
 30
2291.666666666667
 70
   192
  0
VERTEX
  5
477
330
36
100
AcDbEntity
  8
0
100
AcDbVertex
100
AcDbPolyFaceMeshVertex
 10
3345.000018162577
 20
-11.83744133413731
 30
2291.666666666667
 70
   192
  0
VERTEX
  5
478
330
36
100
AcDbEntity
  8
0
100
AcDbVertex
100
AcDbPolyFaceMeshVertex
 10
3345.000387715977
 20
357.7155890967772
 30
2291.666666666667
 70
   192
  0
VERTEX
  5
479
330
36
100
AcDbEntity
  8
0
100
AcDbVertex
100
AcDbPolyFaceMeshVertex
 10
3345.000387715977
 20
357.7155890967772
 30
2251.666666666667
 70
   192
  0
VERTEX
  5
47A
330
36
100
AcDbEntity
  8
0
100
AcDbVertex
100
AcDbPolyFaceMeshVertex
 10
2475.001357716946
 20
357.7155882267782
 30
2251.666666666667
 70
   192
  0
VERTEX
  5
47B
330
36
100
AcDbEntity
  8
0
100
AcDbVertex
100
AcDbPolyFaceMeshVertex
 10
2475.000988163546
 20
-11.83744220413634
 30
2251.666666666667
 70
   192
  0
VERTEX
  5
47C
330
36
100
AcDbEntity
  8
0
100
AcDbVertex
100
AcDbPolyFaceMeshVertex
 10
3345.000018162577
 20
-11.83744133413731
 30
2251.666666666667
 70
   192
  0
VERTEX
  5
47D
330
36
100
AcDbEntity
  8
0
100
AcDbVertex
100
AcDbPolyFaceMeshVertex
 10
3345.000387715977
 20
357.7155890967772
 30
2251.666666666667
 70
   192
  0
VERTEX
  5
47E
330
36
100
AcDbEntity
  8
0
 62
     0
100
AcDbFaceRecord
 10
0.0
 20
0.0
 30
0.0
 70
   128
 71
    -5
 72
    -2
 73
    -3
 74
    -3
  0
VERTEX
  5
47F
330
36
100
AcDbEntity
  8
0
 62
     0
100
AcDbFaceRecord
 10
0.0
 20
0.0
 30
0.0
 70
   128
 71
   -10
 72
    -7
 73
    -8
 74
    -8
  0
VERTEX
  5
480
330
36
100
AcDbEntity
  8
0
 62
     0
100
AcDbFaceRecord
 10
0.0
 20
0.0
 30
0.0
 70
   128
 71
    -3
 72
    -4
 73
    -5
 74
    -5
  0
VERTEX
  5
481
330
36
100
AcDbEntity
  8
0
 62
     0
100
AcDbFaceRecord
 10
0.0
 20
0.0
 30
0.0
 70
   128
 71
    -8
 72
    -9
 73
   -10
 74
   -10
  0
VERTEX
  5
482
330
36
100
AcDbEntity
  8
0
 62
     0
100
AcDbFaceRecord
 10
0.0
 20
0.0
 30
0.0
 70
   128
 71
     1
 72
     2
 73
     7
 74
     6
  0
VERTEX
  5
483
330
36
100
AcDbEntity
  8
0
 62
     0
100
AcDbFaceRecord
 10
0.0
 20
0.0
 30
0.0
 70
   128
 71
     2
 72
     3
 73
     8
 74
     7
  0
VERTEX
  5
484
330
36
100
AcDbEntity
  8
0
 62
     0
100
AcDbFaceRecord
 10
0.0
 20
0.0
 30
0.0
 70
   128
 71
     3
 72
     4
 73
     9
 74
     8
  0
VERTEX
  5
485
330
36
100
AcDbEntity
  8
0
 62
     0
100
AcDbFaceRecord
 10
0.0
 20
0.0
 30
0.0
 70
   128
 71
     4
 72
     5
 73
    10
 74
     9
  0
SEQEND
  5
473
330
36
100
AcDbEntity
  8
STUFEN
  0
LWPOLYLINE
  5
37
330
5D
100
AcDbEntity
  8
STUFEN
100
AcDbPolyline
 90
        5
 70
     0
 43
0.0
 38
2444.444444444444
 10
3345.000048162607
 20
18.16255866586272
 10
2475.001018163576
 20
18.16255779586369
 10
2475.000648610176
 20
-351.3904726350508
 10
3344.999678609207
 20
-351.3904717650518
 10
3345.000048162607
 20
18.16255866586272
  0
POLYLINE
  5
38
330
5D
100
AcDbEntity
  8
STUFEN
100
AcDbPolyFaceMesh
 66
     1
 10
0.0
 20
0.0
 30
0.0
 70
    64
 71
    10
 72
     8
  0
VERTEX
  5
487
330
38
100
AcDbEntity
  8
0
100
AcDbVertex
100
AcDbPolyFaceMeshVertex
 10
3345.000048162607
 20
18.16255866586272
 30
2444.444444444444
 70
   192
  0
VERTEX
  5
488
330
38
100
AcDbEntity
  8
0
100
AcDbVertex
100
AcDbPolyFaceMeshVertex
 10
2475.001018163576
 20
18.16255779586369
 30
2444.444444444444
 70
   192
  0
VERTEX
  5
489
330
38
100
AcDbEntity
  8
0
100
AcDbVertex
100
AcDbPolyFaceMeshVertex
 10
2475.000648610176
 20
-351.3904726350508
 30
2444.444444444444
 70
   192
  0
VERTEX
  5
48A
330
38
100
AcDbEntity
  8
0
100
AcDbVertex
100
AcDbPolyFaceMeshVertex
 10
3344.999678609207
 20
-351.3904717650518
 30
2444.444444444444
 70
   192
  0
VERTEX
  5
48B
330
38
100
AcDbEntity
  8
0
100
AcDbVertex
100
AcDbPolyFaceMeshVertex
 10
3345.000048162607
 20
18.16255866586272
 30
2444.444444444444
 70
   192
  0
VERTEX
  5
48C
330
38
100
AcDbEntity
  8
0
100
AcDbVertex
100
AcDbPolyFaceMeshVertex
 10
3345.000048162607
 20
18.16255866586272
 30
2404.444444444444
 70
   192
  0
VERTEX
  5
48D
330
38
100
AcDbEntity
  8
0
100
AcDbVertex
100
AcDbPolyFaceMeshVertex
 10
2475.001018163576
 20
18.16255779586369
 30
2404.444444444444
 70
   192
  0
VERTEX
  5
48E
330
38
100
AcDbEntity
  8
0
100
AcDbVertex
100
AcDbPolyFaceMeshVertex
 10
2475.000648610176
 20
-351.3904726350508
 30
2404.444444444444
 70
   192
  0
VERTEX
  5
48F
330
38
100
AcDbEntity
  8
0
100
AcDbVertex
100
AcDbPolyFaceMeshVertex
 10
3344.999678609207
 20
-351.3904717650518
 30
2404.444444444444
 70
   192
  0
VERTEX
  5
490
330
38
100
AcDbEntity
  8
0
100
AcDbVertex
100
AcDbPolyFaceMeshVertex
 10
3345.000048162607
 20
18.16255866586272
 30
2404.444444444444
 70
   192
  0
VERTEX
  5
491
330
38
100
AcDbEntity
  8
0
 62
     0
100
AcDbFaceRecord
 10
0.0
 20
0.0
 30
0.0
 70
   128
 71
    -5
 72
    -2
 73
    -3
 74
    -3
  0
VERTEX
  5
492
330
38
100
AcDbEntity
  8
0
 62
     0
100
AcDbFaceRecord
 10
0.0
 20
0.0
 30
0.0
 70
   128
 71
   -10
 72
    -7
 73
    -8
 74
    -8
  0
VERTEX
  5
493
330
38
100
AcDbEntity
  8
0
 62
     0
100
AcDbFaceRecord
 10
0.0
 20
0.0
 30
0.0
 70
   128
 71
    -3
 72
    -4
 73
    -5
 74
    -5
  0
VERTEX
  5
494
330
38
100
AcDbEntity
  8
0
 62
     0
100
AcDbFaceRecord
 10
0.0
 20
0.0
 30
0.0
 70
   128
 71
    -8
 72
    -9
 73
   -10
 74
   -10
  0
VERTEX
  5
495
330
38
100
AcDbEntity
  8
0
 62
     0
100
AcDbFaceRecord
 10
0.0
 20
0.0
 30
0.0
 70
   128
 71
     1
 72
     2
 73
     7
 74
     6
  0
VERTEX
  5
496
330
38
100
AcDbEntity
  8
0
 62
     0
100
AcDbFaceRecord
 10
0.0
 20
0.0
 30
0.0
 70
   128
 71
     2
 72
     3
 73
     8
 74
     7
  0
VERTEX
  5
497
330
38
100
AcDbEntity
  8
0
 62
     0
100
AcDbFaceRecord
 10
0.0
 20
0.0
 30
0.0
 70
   128
 71
     3
 72
     4
 73
     9
 74
     8
  0
VERTEX
  5
498
330
38
100
AcDbEntity
  8
0
 62
     0
100
AcDbFaceRecord
 10
0.0
 20
0.0
 30
0.0
 70
   128
 71
     4
 72
     5
 73
    10
 74
     9
  0
SEQEND
  5
486
330
38
100
AcDbEntity
  8
STUFEN
  0
LWPOLYLINE
  5
39
330
5D
100
AcDbEntity
  8
STUFEN
100
AcDbPolyline
 90
        5
 70
     0
 43
0.0
 38
2597.222222222222
 10
3344.999708609237
 20
-321.3904717650518
 10
2475.000678610206
 20
-321.3904726350508
 10
2475.000309056806
 20
-690.9435030659653
 10
3344.999339055837
 20
-690.9435021959663
 10
3344.999708609237
 20
-321.3904717650518
  0
POLYLINE
  5
3A
330
5D
100
AcDbEntity
  8
STUFEN
100
AcDbPolyFaceMesh
 66
     1
 10
0.0
 20
0.0
 30
0.0
 70
    64
 71
    10
 72
     8
  0
VERTEX
  5
49A
330
3A
100
AcDbEntity
  8
0
100
AcDbVertex
100
AcDbPolyFaceMeshVertex
 10
3344.999708609237
 20
-321.3904717650518
 30
2597.222222222222
 70
   192
  0
VERTEX
  5
49B
330
3A
100
AcDbEntity
  8
0
100
AcDbVertex
100
AcDbPolyFaceMeshVertex
 10
2475.000678610206
 20
-321.3904726350508
 30
2597.222222222222
 70
   192
  0
VERTEX
  5
49C
330
3A
100
AcDbEntity
  8
0
100
AcDbVertex
100
AcDbPolyFaceMeshVertex
 10
2475.000309056806
 20
-690.9435030659653
 30
2597.222222222222
 70
   192
  0
VERTEX
  5
49D
330
3A
100
AcDbEntity
  8
0
100
AcDbVertex
100
AcDbPolyFaceMeshVertex
 10
3344.999339055837
 20
-690.9435021959663
 30
2597.222222222222
 70
   192
  0
VERTEX
  5
49E
330
3A
100
AcDbEntity
  8
0
100
AcDbVertex
100
AcDbPolyFaceMeshVertex
 10
3344.999708609237
 20
-321.3904717650518
 30
2597.222222222222
 70
   192
  0
VERTEX
  5
49F
330
3A
100
AcDbEntity
  8
0
100
AcDbVertex
100
AcDbPolyFaceMeshVertex
 10
3344.999708609237
 20
-321.3904717650518
 30
2557.222222222222
 70
   192
  0
VERTEX
  5
4A0
330
3A
100
AcDbEntity
  8
0
100
AcDbVertex
100
AcDbPolyFaceMeshVertex
 10
2475.000678610206
 20
-321.3904726350508
 30
2557.222222222222
 70
   192
  0
VERTEX
  5
4A1
330
3A
100
AcDbEntity
  8
0
100
AcDbVertex
100
AcDbPolyFaceMeshVertex
 10
2475.000309056806
 20
-690.9435030659653
 30
2557.222222222222
 70
   192
  0
VERTEX
  5
4A2
330
3A
100
AcDbEntity
  8
0
100
AcDbVertex
100
AcDbPolyFaceMeshVertex
 10
3344.999339055837
 20
-690.9435021959663
 30
2557.222222222222
 70
   192
  0
VERTEX
  5
4A3
330
3A
100
AcDbEntity
  8
0
100
AcDbVertex
100
AcDbPolyFaceMeshVertex
 10
3344.999708609237
 20
-321.3904717650518
 30
2557.222222222222
 70
   192
  0
VERTEX
  5
4A4
330
3A
100
AcDbEntity
  8
0
 62
     0
100
AcDbFaceRecord
 10
0.0
 20
0.0
 30
0.0
 70
   128
 71
    -5
 72
    -2
 73
    -3
 74
    -3
  0
VERTEX
  5
4A5
330
3A
100
AcDbEntity
  8
0
 62
     0
100
AcDbFaceRecord
 10
0.0
 20
0.0
 30
0.0
 70
   128
 71
   -10
 72
    -7
 73
    -8
 74
    -8
  0
VERTEX
  5
4A6
330
3A
100
AcDbEntity
  8
0
 62
     0
100
AcDbFaceRecord
 10
0.0
 20
0.0
 30
0.0
 70
   128
 71
    -3
 72
    -4
 73
    -5
 74
    -5
  0
VERTEX
  5
4A7
330
3A
100
AcDbEntity
  8
0
 62
     0
100
AcDbFaceRecord
 10
0.0
 20
0.0
 30
0.0
 70
   128
 71
    -8
 72
    -9
 73
   -10
 74
   -10
  0
VERTEX
  5
4A8
330
3A
100
AcDbEntity
  8
0
 62
     0
100
AcDbFaceRecord
 10
0.0
 20
0.0
 30
0.0
 70
   128
 71
     1
 72
     2
 73
     7
 74
     6
  0
VERTEX
  5
4A9
330
3A
100
AcDbEntity
  8
0
 62
     0
100
AcDbFaceRecord
 10
0.0
 20
0.0
 30
0.0
 70
   128
 71
     2
 72
     3
 73
     8
 74
     7
  0
VERTEX
  5
4AA
330
3A
100
AcDbEntity
  8
0
 62
     0
100
AcDbFaceRecord
 10
0.0
 20
0.0
 30
0.0
 70
   128
 71
     3
 72
     4
 73
     9
 74
     8
  0
VERTEX
  5
4AB
330
3A
100
AcDbEntity
  8
0
 62
     0
100
AcDbFaceRecord
 10
0.0
 20
0.0
 30
0.0
 70
   128
 71
     4
 72
     5
 73
    10
 74
     9
  0
SEQEND
  5
499
330
3A
100
AcDbEntity
  8
STUFEN
  0
LWPOLYLINE
  5
3B
330
5D
100
AcDbEntity
  8
STUFEN
100
AcDbPolyline
 90
        5
 70
     0
 43
0.0
 38
2750.0
 10
3344.999369055867
 20
-660.9435021959662
 10
2475.000339056836
 20
-660.9435030659653
 10
2475.0
 20
-1000.0
 10
3345.0
 20
-1000.0
 10
3344.999369055867
 20
-660.9435021959662
  0
POLYLINE
  5
3C
330
5D
100
AcDbEntity
  8
STUFEN
100
AcDbPolyFaceMesh
 66
     1
 10
0.0
 20
0.0
 30
0.0
 70
    64
 71
    10
 72
     8
  0
VERTEX
  5
4AD
330
3C
100
AcDbEntity
  8
0
100
AcDbVertex
100
AcDbPolyFaceMeshVertex
 10
3344.999369055867
 20
-660.9435021959662
 30
2750.0
 70
   192
  0
VERTEX
  5
4AE
330
3C
100
AcDbEntity
  8
0
100
AcDbVertex
100
AcDbPolyFaceMeshVertex
 10
2475.000339056836
 20
-660.9435030659653
 30
2750.0
 70
   192
  0
VERTEX
  5
4AF
330
3C
100
AcDbEntity
  8
0
100
AcDbVertex
100
AcDbPolyFaceMeshVertex
 10
2475.0
 20
-1000.0
 30
2750.0
 70
   192
  0
VERTEX
  5
4B0
330
3C
100
AcDbEntity
  8
0
100
AcDbVertex
100
AcDbPolyFaceMeshVertex
 10
3345.0
 20
-1000.0
 30
2750.0
 70
   192
  0
VERTEX
  5
4B1
330
3C
100
AcDbEntity
  8
0
100
AcDbVertex
100
AcDbPolyFaceMeshVertex
 10
3344.999369055867
 20
-660.9435021959662
 30
2750.0
 70
   192
  0
VERTEX
  5
4B2
330
3C
100
AcDbEntity
  8
0
100
AcDbVertex
100
AcDbPolyFaceMeshVertex
 10
3344.999369055867
 20
-660.9435021959662
 30
2710.0
 70
   192
  0
VERTEX
  5
4B3
330
3C
100
AcDbEntity
  8
0
100
AcDbVertex
100
AcDbPolyFaceMeshVertex
 10
2475.000339056836
 20
-660.9435030659653
 30
2710.0
 70
   192
  0
VERTEX
  5
4B4
330
3C
100
AcDbEntity
  8
0
100
AcDbVertex
100
AcDbPolyFaceMeshVertex
 10
2475.0
 20
-1000.0
 30
2710.0
 70
   192
  0
VERTEX
  5
4B5
330
3C
100
AcDbEntity
  8
0
100
AcDbVertex
100
AcDbPolyFaceMeshVertex
 10
3345.0
 20
-1000.0
 30
2710.0
 70
   192
  0
VERTEX
  5
4B6
330
3C
100
AcDbEntity
  8
0
100
AcDbVertex
100
AcDbPolyFaceMeshVertex
 10
3344.999369055867
 20
-660.9435021959662
 30
2710.0
 70
   192
  0
VERTEX
  5
4B7
330
3C
100
AcDbEntity
  8
0
 62
     0
100
AcDbFaceRecord
 10
0.0
 20
0.0
 30
0.0
 70
   128
 71
    -5
 72
    -2
 73
    -3
 74
    -3
  0
VERTEX
  5
4B8
330
3C
100
AcDbEntity
  8
0
 62
     0
100
AcDbFaceRecord
 10
0.0
 20
0.0
 30
0.0
 70
   128
 71
   -10
 72
    -7
 73
    -8
 74
    -8
  0
VERTEX
  5
4B9
330
3C
100
AcDbEntity
  8
0
 62
     0
100
AcDbFaceRecord
 10
0.0
 20
0.0
 30
0.0
 70
   128
 71
    -3
 72
    -4
 73
    -5
 74
    -5
  0
VERTEX
  5
4BA
330
3C
100
AcDbEntity
  8
0
 62
     0
100
AcDbFaceRecord
 10
0.0
 20
0.0
 30
0.0
 70
   128
 71
    -8
 72
    -9
 73
   -10
 74
   -10
  0
VERTEX
  5
4BB
330
3C
100
AcDbEntity
  8
0
 62
     0
100
AcDbFaceRecord
 10
0.0
 20
0.0
 30
0.0
 70
   128
 71
     1
 72
     2
 73
     7
 74
     6
  0
VERTEX
  5
4BC
330
3C
100
AcDbEntity
  8
0
 62
     0
100
AcDbFaceRecord
 10
0.0
 20
0.0
 30
0.0
 70
   128
 71
     2
 72
     3
 73
     8
 74
     7
  0
VERTEX
  5
4BD
330
3C
100
AcDbEntity
  8
0
 62
     0
100
AcDbFaceRecord
 10
0.0
 20
0.0
 30
0.0
 70
   128
 71
     3
 72
     4
 73
     9
 74
     8
  0
VERTEX
  5
4BE
330
3C
100
AcDbEntity
  8
0
 62
     0
100
AcDbFaceRecord
 10
0.0
 20
0.0
 30
0.0
 70
   128
 71
     4
 72
     5
 73
    10
 74
     9
  0
SEQEND
  5
4AC
330
3C
100
AcDbEntity
  8
STUFEN
  0
3DFACE
  5
3D
330
5D
100
AcDbEntity
  8
BODEN
100
AcDbFace
 10
-945.0
 20
-1030.0
 30
0.0
 11
-945.0
 21
2945.0
 31
0.0
 12
4345.0
 22
2945.0
 32
0.0
 13
4345.0
 23
-1030.0
 33
0.0
  0
ENDSEC
  0
SECTION
  2
OBJECTS
  0
DICTIONARY
  5
4A
330
0
100
AcDbDictionary
  3
ACAD_GROUP
350
4B
  3
ACAD_LAYOUT
350
58
  3
ACAD_MLINESTYLE
350
55
  3
ACAD_PLOTSETTINGS
350
57
  3
ACDBHEADERROUNDTRIPXREC
350
4BF
  3
VECTORDRAW_OBJECTS
350
6D
  0
DICTIONARY
  5
4DF
330
67
100
AcDbDictionary
280
     1
  3
ACAD_XREC_ROUNDTRIP
360
4E0
  0
DICTIONARY
  5
4B
102
{ACAD_REACTORS
330
4A
102
}
330
4A
100
AcDbDictionary
  0
DICTIONARY
  5
58
102
{ACAD_REACTORS
330
4A
102
}
330
4A
100
AcDbDictionary
  0
DICTIONARY
  5
55
102
{ACAD_REACTORS
330
4A
102
}
330
4A
100
AcDbDictionary
  3
STANDARD
350
56
  0
DICTIONARY
  5
57
102
{ACAD_REACTORS
330
4A
102
}
330
4A
100
AcDbDictionary
  0
DICTIONARY
  5
4BF
102
{ACAD_REACTORS
330
4A
102
}
330
4A
100
AcDbDictionary
  3
CEPSNTYPE
350
4C8
  3
DIMSTYLEDATA
350
4DE
  3
FINGERPRINTGUID
350
4C9
  3
HYPERLINKBASE
350
4C2
  3
INSUNITS
350
4C7
  3
LAYOUTDICT
350
4C4
  3
LWETCUNION
350
4C6
  3
PLOTSETDICT
350
4C5
  3
PSVPSCALE
350
4CB
  3
PUCSBASE
350
4CE
  3
PUCSORGBACK
350
4D4
  3
PUCSORGBOTTOM
350
4D0
  3
PUCSORGFRONT
350
4D3
  3
PUCSORGLEFT
350
4D1
  3
PUCSORGRIGHT
350
4D2
  3
PUCSORGTOP
350
4CF
  3
PUCSORTHOREF
350
4CC
  3
PUCSORTHOVIEW
350
4CD
  3
STYLESHEET
350
4C3
  3
TSTACKALIGN
350
4C0
  3
TSTACKSIZE
350
4C1
  3
UCSBASE
350
4D7
  3
UCSORGBACK
350
4DD
  3
UCSORGBOTTOM
350
4D9
  3
UCSORGFRONT
350
4DC
  3
UCSORGLEFT
350
4DA
  3
UCSORGRIGHT
350
4DB
  3
UCSORGTOP
350
4D8
  3
UCSORTHOREF
350
4D5
  3
UCSORTHOVIEW
350
4D6
  3
VERSIONGUID
350
4CA
  0
DICTIONARY
  5
6D
102
{ACAD_REACTORS
330
4A
102
}
330
4A
100
AcDbDictionary
  3
SERIALNO
350
6E
  0
XRECORD
  5
4E0
102
{ACAD_REACTORS
330
4DF
102
}
330
4DF
100
AcDbXrecord
102
UCS
 74
     0
 71
     1
 10
0.0
 20
0.0
 30
0.0
 10
1.0
 20
0.0
 30
0.0
 10
0.0
 20
1.0
 30
0.0
146
0.0
 79
     0
102
VIEW
281
     0
  0
MLINESTYLE
  5
56
102
{ACAD_REACTORS
330
55
102
}
330
55
100
AcDbMlineStyle
  2
Standard
 70
     0
  3

 62
   256
 51
90.0
 52
90.0
 71
     2
 49
0.5
 62
   256
  6
BYLAYER
 49
-0.5
 62
   256
  6
BYLAYER
  0
XRECORD
  5
4C8
102
{ACAD_REACTORS
330
4BF
102
}
330
4BF
100
AcDbXrecord
 90
        0
  0
XRECORD
  5
4DE
102
{ACAD_REACTORS
330
4BF
102
}
330
4BF
100
AcDbXrecord
1000
DSTYLE
1002
{
1070
    41
 40
0.2
1070
   342
340
6
1070
   177
 70
   256
1070
   178
 70
   256
1070
    44
 40
0.2
1070
    42
 40
0.05
1070
    73
 70
     0
1070
   174
 70
     1
1070
   172
 70
     1
1070
    74
 70
     0
1070
   340
340
4F
1070
   140
 40
0.2
1070
   288
 70
     1
1002
}
  0
XRECORD
  5
4C9
102
{ACAD_REACTORS
330
4BF
102
}
330
4BF
100
AcDbXrecord
  1
{FAEB1C30-E019-11D5-929B-00C0DF256EC4}
  0
XRECORD
  5
4C2
102
{ACAD_REACTORS
330
4BF
102
}
330
4BF
100
AcDbXrecord
  1

  0
XRECORD
  5
4C7
102
{ACAD_REACTORS
330
4BF
102
}
330
4BF
100
AcDbXrecord
 90
        1
  0
XRECORD
  5
4C4
102
{ACAD_REACTORS
330
4BF
102
}
330
4BF
100
AcDbXrecord
340
58
  0
XRECORD
  5
4C6
102
{ACAD_REACTORS
330
4BF
102
}
330
4BF
100
AcDbXrecord
 90
     2048
  0
XRECORD
  5
4C5
102
{ACAD_REACTORS
330
4BF
102
}
330
4BF
100
AcDbXrecord
340
57
  0
XRECORD
  5
4CB
102
{ACAD_REACTORS
330
4BF
102
}
330
4BF
100
AcDbXrecord
 40
0.0
  0
XRECORD
  5
4CE
102
{ACAD_REACTORS
330
4BF
102
}
330
4BF
100
AcDbXrecord
340
0
  0
XRECORD
  5
4D4
102
{ACAD_REACTORS
330
4BF
102
}
330
4BF
100
AcDbXrecord
 10
0.0
 20
0.0
 30
0.0
  0
XRECORD
  5
4D0
102
{ACAD_REACTORS
330
4BF
102
}
330
4BF
100
AcDbXrecord
 10
0.0
 20
0.0
 30
0.0
  0
XRECORD
  5
4D3
102
{ACAD_REACTORS
330
4BF
102
}
330
4BF
100
AcDbXrecord
 10
0.0
 20
0.0
 30
0.0
  0
XRECORD
  5
4D1
102
{ACAD_REACTORS
330
4BF
102
}
330
4BF
100
AcDbXrecord
 10
0.0
 20
0.0
 30
0.0
  0
XRECORD
  5
4D2
102
{ACAD_REACTORS
330
4BF
102
}
330
4BF
100
AcDbXrecord
 10
0.0
 20
0.0
 30
0.0
  0
XRECORD
  5
4CF
102
{ACAD_REACTORS
330
4BF
102
}
330
4BF
100
AcDbXrecord
 10
0.0
 20
0.0
 30
0.0
  0
XRECORD
  5
4CC
102
{ACAD_REACTORS
330
4BF
102
}
330
4BF
100
AcDbXrecord
340
0
  0
XRECORD
  5
4CD
102
{ACAD_REACTORS
330
4BF
102
}
330
4BF
100
AcDbXrecord
 70
     0
  0
XRECORD
  5
4C3
102
{ACAD_REACTORS
330
4BF
102
}
330
4BF
100
AcDbXrecord
  1

  0
XRECORD
  5
4C0
102
{ACAD_REACTORS
330
4BF
102
}
330
4BF
100
AcDbXrecord
 90
        1
  0
XRECORD
  5
4C1
102
{ACAD_REACTORS
330
4BF
102
}
330
4BF
100
AcDbXrecord
 90
       70
  0
XRECORD
  5
4D7
102
{ACAD_REACTORS
330
4BF
102
}
330
4BF
100
AcDbXrecord
340
0
  0
XRECORD
  5
4DD
102
{ACAD_REACTORS
330
4BF
102
}
330
4BF
100
AcDbXrecord
 10
0.0
 20
0.0
 30
0.0
  0
XRECORD
  5
4D9
102
{ACAD_REACTORS
330
4BF
102
}
330
4BF
100
AcDbXrecord
 10
0.0
 20
0.0
 30
0.0
  0
XRECORD
  5
4DC
102
{ACAD_REACTORS
330
4BF
102
}
330
4BF
100
AcDbXrecord
 10
0.0
 20
0.0
 30
0.0
  0
XRECORD
  5
4DA
102
{ACAD_REACTORS
330
4BF
102
}
330
4BF
100
AcDbXrecord
 10
0.0
 20
0.0
 30
0.0
  0
XRECORD
  5
4DB
102
{ACAD_REACTORS
330
4BF
102
}
330
4BF
100
AcDbXrecord
 10
0.0
 20
0.0
 30
0.0
  0
XRECORD
  5
4D8
102
{ACAD_REACTORS
330
4BF
102
}
330
4BF
100
AcDbXrecord
 10
0.0
 20
0.0
 30
0.0
  0
XRECORD
  5
4D5
102
{ACAD_REACTORS
330
4BF
102
}
330
4BF
100
AcDbXrecord
340
0
  0
XRECORD
  5
4D6
102
{ACAD_REACTORS
330
4BF
102
}
330
4BF
100
AcDbXrecord
 70
     0
  0
XRECORD
  5
4CA
102
{ACAD_REACTORS
330
4BF
102
}
330
4BF
100
AcDbXrecord
  1
{FAEB1C32-E019-11D5-929B-00C0DF256EC4}
  0
XRECORD
  5
6E
102
{ACAD_REACTORS
330
6D
102
}
330
6D
100
AcDbXrecord
1000
ncPhVYpfZ3E8RDPZRHsEPk8jD
1070
     4
1070
     6
  0
ENDSEC
  0
EOF
